Song name
# A B C D E F G H I J K L M N O P Q R S T U V W X Y Z

Misc Unsigned Bands - The Goodbye Stars - Tear tab

http://goodbyestars.8m.com 
http://www.mp3.com.au/thegoodbyestars

LYRIC/TAB SHEET: 'tear' by THE GOODBYE STARS.


==========================tear=================================

For guiding you
Left a tear on the mantlepiece

For finding you
Left a tear on the waiting

**GUITAR TAB**

capo 3rd fret

intro
|---0---0----|
|---0---0----|
|---0---0----|
|---2---9----|
|---2---10---|
|---0---8----|

verse
|---x---x---x----0---|
|---3---0---0----0---|
|---2---0---0----0---|
|---0---4---9----2---|
|---2---5---10---2---|
|---0---3---8----0---|

interlude
|---10---12---5---7---|
|---0----0----0---0---|
|---0----0----0---0---|
|---0----0----0---0---|
|---10---12---5---7---|
|---8----10---3---5---|

===============================================================
Tap to rate this tab
 
# A B C D E F G H I J K L M N O P Q R S T U V W X Y Z