Song name
# A B C D E F G H I J K L M N O P Q R S T U V W X Y Z

Misc Unsigned Bands - Severe Punishment - White Out tab

Written by: Severe Punishment
Date: 2005
Album: Here Comes the Pain

Guitar 1 - Kyle Norbury (Lead)
Guitar 2 - Justin Larkin (Rhythm)

Guitar 1: 
e||-----------------------------||
B||-----------------------------||
G||-----------------------------||
D||-----------------------------||
A||-4-XX-4-XX-4-XX-4-XX-4-0-4-0-||
E||-2-XX-2-XX-2-XX-2-XX-2-0-2-0-||

Guitar 2:
e||--------------------||
B||--------------------||
G||--------------------||
D||-4-0-0--4-0-0-4-5-4-||
A||-2-0-0--2-0-0-2-3-2-||
E||--------------------||

Guitar 1: 
e||-----------------------------||
B||-----------------------------||
G||-----------------------------||
D||-----------------------------||
A||-4-XX-4-XX-4-XX-4-XX-4-0-4-0-||
E||-2-XX-2-XX-2-XX-2-XX-2-0-2-0-||

Guitar 2:
e||--------------------||
B||--------------------||
G||--------------------||
D||-4-0-0--4-0-0-4-5-0-||
A||-2-0-0--2-0-0-2-3-0-||
E||--------------------||

Well this is by my band, and I hope you like it. Oh, and check out our lyrics at All
Good Lyrics.com (Search for Severe Punishment and it should come up.
Tap to rate this tab
 
# A B C D E F G H I J K L M N O P Q R S T U V W X Y Z