Song name
# A B C D E F G H I J K L M N O P Q R S T U V W X Y Z

Misc Unsigned Bands - Yarbles - Convenience tab

Easy three-chord progression.

  (Verse)
e|------------------------------------------------|
B|------------------------------------------------|
G|-7---7--7-7-------------------------------------|
D|-7-7-7--7-7--5-5-5-5-5-7-7-7-7-7----------------|X2
A|-5-7-5--5-5--5-5-5-5-5-7-7-7-7-7----------------|
E|---5---------3-3-3-3-3-5-5-5-5-5----------------|


e|------------------------------------------------|
B|------------------------------------------------|
G|------------------------------------------------|
D|------------------------------------------------|
A|-5-5-5-5-5-3/5-5-5-5--5-5-5-5-3-0---------------|
E|------------------------------------------------|

(Repeat Verse)
  (Chorus)
e|------------------------------------------------|
B|------------------------------------------------|
G|-7-7-7-------------7-7-7---7---7-7-7------------|                        
D|-7-7-7-5-5-5-7-7-7-7-7-7-7-7-7-7-7-7-5-5-5-7-7-7|
A|-5-5-5-5-5-5-7-7-7-5-5-5-7-5-7-5-5-5-5-5-5-7-7-7|
E|-------3-3-3-5-5-5-------5---5-------3-3-3-5-5-5|


   (Chorus)
e|---------|
B|---------|
G|-7-7-777-|(Repeat Verse)(Repeat Chorus)(Repeat Verse)(Repeat Verse)
D|-7-7-777-|
A|-5-5-555-|
E|---------|
Tap to rate this tab
 
# A B C D E F G H I J K L M N O P Q R S T U V W X Y Z