Guitaretab - guitar tabs
Song name
# A B C D E F G H I J K L M N O P Q R S T U V W X Y Z

Misc Unsigned Bands - Identification - Radi Nas tab

*-------------------------*
|BAND: IDENTIFICATION     |
|SoNG: RADI NAS ( )|
*-------------------------*

Transcribed & Tabbed by 8ur!Me
8urime@mail.ru

INTRO (clean):
E-------------------------------------------|
B-------------------------------------------|
G----------------------------------------5--|
D----3--2----------10------3--2--------3----|
A----------3-----8---------------3---3------|
D-0------------8--------0-------------------|

                        (w/distortion)
E-------------------------------------------|
B-------------------------------------------|
G-------------------------------------------|
D----3--2----------10-----------------------|
A----------3-----8------8-8---8-8---8-------|
D-0------------8--------8-8---8-8---8-------|

MAIN PART (w/distortion):

E-------------------------------|
B-------------------------------|
G-------------------------------|REPEAT
D-------------------10------10--|  3X
A-0---0-0-3-0---0-0-8---0-0-8---|
D-0---0-0-3-0---0-0-8---0-0-8---|

Then:
E-------------------------------|
B-------------------------------|
G---------------12-10-9-9h10p9--|
D-------------------------------|
A-0---0-0-3-0-------------------|
D-0---0-0-3-0-------------------|

VERSE (w/distortion):

"Ya smotrel na tebya ..."
"    ..."
P.M...............................
E---------------------------------|
B---------------------------------|
G---------------------------------|
D---------------------------------|
A-----------------3-5-----3-5-----|
D-0-0-0-0-0-0-0-0-----0-0-----0-0-|

P.M...............................
E---------------------------------|
B---------------------------------|
G---------------------------------|
D---------------------------------|
A----------10-8-7---7-8---7-8-----|
D-7-7-7-7---------7-----7-----7-7-|
[ Tab from: http://www.guitaretab.com/m/misc-unsigned-bands/62110.html ]
P.M...............................
E---------------------------------|
B---------------------------------|
G---------------------------------|
D---------------------------------|
A----------10-8-7---7-8---7-8-----|
D-8-8-8-8---------8-----8-----8-8-|

P.M...........................
E---------------------------------|
B---------------------------------|
G---------------------------------|
D---------------------------------|
A---------------------------------|
D-5-5-5-5-5-5-5-5-7-7-7-7-7-7-8-7-|

CHORUS (w/distortion):

for rhytm, just listen the record

"Ti otdal sebya na krest ..."
"     ..."
E---------------------------------------------------|
B---------------------------------------------------|
G--------------------------------------10-9-7-------|
D-0---0--0-0--8--8-8--8--3---3--3-3--1--------8-x-x-|
A-0---0--0-0--8--8-8--8--3---3--3-3--1--------8-x-x-|
D-0---0--0-0--8--8-8--8--3---3--3-3--1--------8-x-x-|


BREAK:

E---------|---------------------------------------|
B---------|-----6s8-8--8-8-6---------6s8-8--8-8---|
G-x-x-x-x-|-5-7--------------7---5-7------------7-|
D-x-x-x-x-|---------------------------------------|
A-x-x-x-x-|---------------------------------------|
D---------|---------------------------------------|

E----------------------------------|
B-----6s8-8--8-8-6---------6-6-6-6-|
G-5-7--------------7---5-7---------|
D----------------------------------|
A----------------------------------|
D----------------------------------|

E-------------------------------|
B-------------------------------|
G-------------------------------|REPEAT
D-------------------------------|  3X
A-0---0-0-1-0---0-0-3---0-0-3---|
D-0---0-0-1-0---0-0-3---0-0-3---|

Then:
E-------------------------------|
B-------------------------------|
G---------------10-8-7-7h8p7----|
D-------------------------------|
A-0---0-0-1-0-------------------|
D-0---0-0-1-0-------------------|
Related for Identification - Radi Nas tab