Song name
# A B C D E F G H I J K L M N O P Q R S T U V W X Y Z

Misc Unsigned Bands - Emo Side Project - Strawberry Shampoop tab

-------------------------------------------------------------------------------
		STRAWBERRY SHAMPOOP - Emo Side Project
-------------------------------------------------------------------------------
Tabbed by:Rafa88offspring
Email: rafa88offspring@hotmail.com

Tuning:Standard (EADgbe)

hehe well this is a great song by Andrew (Fatkidsonmopeds)... the other day i
was just goofing with my guitar and suddenly i started playing the main riff 
so, i decided to tab the whole song

you can check out Emo Side Project here: http://esp1.dmusic.com 

Intro/main riff
e|------------------------------------------------------------|
B|------------------------------------------------------------|
G|-----0-------0-----0-------0-----0-------0-------5-------4--|
D|-7-7---7-7-7---4-4---4-4-4---5-5---5-5-5---5-5-5---5-5-5----|
A|------------------------------------------------------------|
E|------------------------------------------------------------|

Verse (you can figure out the strumming)
e|---------------------------|
B|---------------------------|
G|-55555-55555---------5--4--|
D|-55555-55555-55555-555555--|
A|-33333-22222-55555-555555--|
E|-------------33333-333333--|

play intro/main riff again

after that he sings "whoa whoa oh" these are the chords to that part
e|----------|
B|----------|
G|-2--4-----|
D|-2--4--5--|
A|-0--2--5--|
E|-------3--|

so, that's it, you just repeat those riffs over the song

Comments, Suggestions, or whatever e-mail me: rafa88offspring@hotmail.com

| /  slide up
| \  slide down
| h  hammer-on
| p  pull-off
| ~  vibrato
| +  harmonic
| x  Mute note
===============================================================================
Tap to rate this tab
# A B C D E F G H I J K L M N O P Q R S T U V W X Y Z