Song name
# A B C D E F G H I J K L M N O P Q R S T U V W X Y Z

Misc Unsigned Bands - Public Bounderies - Unnaamed At This Time tab

This is a new band. Not many people know about them, but they rock.


Intro:

Guitar(clean)2x

E-2-2--2---------0-0--0-5-6-7---2-2--2------0-0--0-0--0-0-|
b-4-4--4--5-4----2-2--2---------4-4--4--5-4-2-2--2-2--2-2-|
g---------7-6---------------------------7-6---------------|
d---------------------------------------------------------|
a---------------------------------------------------------|
e---------------------------------------------------------|


Guitar(high distortion)2x

E-2-2--2---------0-0--0-5-6-7---2-2--2------0-0--0-0--0-0-|
b-4-4--4--5-4----2-2--2---------4-4--4--5-4-2-2--2-2--2-2-|
g---------7-6---------------------------7-6---------------|
d---------------------------------------------------------|
a---------------------------------------------------------|
e---------------------------------------------------------|
Tap to rate this tab
# A B C D E F G H I J K L M N O P Q R S T U V W X Y Z