Song name
# A B C D E F G H I J K L M N O P Q R S T U V W X Y Z

Misc Unsigned Bands - Ie Pipe Dream - Alone tab

This is my own band...

LYRICS:
When the last leaf falls you realize, and you ask yourself why you're alone inside.
Looking ant your own reflection, you dont feel anything.
You tell yourself you will be just fine, you tell yourself you'll be just.

Talking to the wall, you dont know it all,
Evryone will fall, then you will be all alone,
Then you will be all, alone.

When the last bond brakes you'll pick up sticks, and you'll tell yourself that you'll
be fine inside,
praying for your own redemption, you wont get anything.
you try to keep yourself in line, you try to keep yourself in.

Your a plastic doll, on the ground you crawl,
you can't rebound the ball, then you will be all alone,
then you will be all,alone

repeat verse 1

INTO+VERSE:

e--------------------------------------------------------3----2---2h3p2p0---|
B--------------0----------0h1p0---------------------------------------------|
G-------1----------0--------------------------0-----------------------------|
D----2-----2-----------------------------4----------------------------------|
A-2--------------------------------2--------------2-------------------------|
E---------------------------------------------------------------------------|

e----------------0------0h1p0------------------------------------------------|
B--------------------0-----------------------------------3----2-----2h3p2p0--|
G-------1-------------------------------------0------------------------------|
D----2------2---------------------------4----------------5-------------------|
A-2--------------2-----------------2--------------2--------------------------|
E----------------------------------------------------------------------------|

CHORUS

e---------------------------------------------------------------------------|
B-------------------------------------------------------0-------------------|
G-------------------------------------------------------1-------------------|
D--4-x-0-------------------4-x-6------------------------2-------------------|
A--2-x-0-x-4-x-6-6-6-6-----2-x-4x-6-\-2-2-2-2-----------2-------------------|
E--------x-2-x-4-4-4-4----------x-4-\-4-4-4-4-----------0-------------------|

Bridge

e---------------------------------------------------------------------------|
B--0---x---7---x---5---x----10----x----7------------------------------------|
G--1---x---8---x---6---x----11----x----8------------------------------------|
D--2---x---8---x---7---x----12----x----9------------------------------------|
A--2---x---9---x---7---x----12----x----9------------------------------------|
E--0---x---7---x---5---x----10----x----7------------------------------------|


ILL ADD THE SOLO LATER,...NICK
Tap to rate this tab
# A B C D E F G H I J K L M N O P Q R S T U V W X Y Z