Song name
# A B C D E F G H I J K L M N O P Q R S T U V W X Y Z

Misc Unsigned Bands - Orion Nine - Boom Boom tab

Author/Artist: Orion Nine
Title: Boom Boom
Tabbed by: Tommyboy
Email: fooghar7@msn.com

This is a song from a band based out of Chicago Illinois. For further information
check them out at orionnine.com.

Tuning:  Whole step down, drop D

Intro
    PM....|    PM                    PM....|
D|--------------------|-----|-----|-------------------|---------------------|
A|--------------------|-----|-----|-------------------|---------------------|
F|--------------------|-----|-----|-------------------|---------------------|
C|--0003-005---00-53--|--%--|--%--|--0003-005---3-53--|---------------------|
G|--0003-005---00-53--|-----|-----|--0003-00----------|---------------------|
C|--0003-005---00-53--|-----|-----|--0003-00----------|---------------------|

Verse
   PM.....|    PM                   PM.....|
D|--------------------|-----|-----|-------------------|---------------------|
A|--------------------|-----|-----|-------------------|---------------------|
F|--------------------|-----|-----|-------------------|---------------------|
C|--------------------|-----|-----|-------------------|---------------------|
G|--------------------|-----|-----|-------------------|---------------------|
C|--------------------|--%--|--%--|---------5---3-53--|---------------------|
G|--------------------|-----|-----|-------------------|---------------------|
C|--0003-005---00-53--|-----|-----|--0003-00----------|---------------------|

Chorus
    PM..|   PM       PM     PM           PM..|    PM       PM     PM
D|---------------|---------------|-----|---------------|---------------|---|
A|---------------|---------------|-----|---------------|---------------|---|
F|---------------|---------------|-----|--------7---7--|-----7------7--|---|
C|--0--0--0-000--|---000----000--|--%--|--0--0--0-000--|---000----000--|-%-|
G|--0--0--0-000--|---000----000--|-----|--0--0--5-005--|---005----005--|---|
C|--0--0--0-000--|---000----000--|-----|--0--0--0-000--|---000----000--|---|

repeat verse
repeat chorus

   w/phase shifter (4X)    (2X)
D|---------------------||--------------------|-----------------||-----------|
A|---------------------||--------------------|-----------------||-----------|
F|---------------------||--------------------|-----------------||-----------|
C|---------------------||--15--15-15--15-12--|--(12)-----------||-----------|
G|---------------------||--15--15-15--15-12--|--(12)-----------||-----------|
C|--0------------------||--15--15-15--15-12--|--(12)-----------||-----------|

Bridge clean w/wah (4X)
D|-----------------|------------------------|-------------------------------|
A|-----------------|------------------------|-------------------------------|
F|-----------------|------------------------|-------------------------------|
C|------5-7---5-7--|--(7)/12--(12)~~12~12\--|-------------------------------|
G|--5h7------------|------------------------|-------------------------------|
C|-----------------|------------------------|-------------------------------|


    .  . .              PM     PM     PM
D|---------------|------------------------|---------------------------------|
A|---------------|------------------------|---------------------------------|
F|---------------|------------------------|---------------------------------|
C|--3--3-3--3-0--|--(0)-00-0---00-0---00--|--2X-----------------------------|
G|--3--3-3--3-0--|--(0)-00-0---00-0---00--|---------------------------------|
C|--3--3-3--3-0--|--(0)-00-0---00-0---00--|---------------------------------|

    PM......|
    .  . .
D|---------------|------------------------|---------------------------------|
A|---------------|------------------------|---------------------------------|
F|---------------|------------------------|---------------------------------|
C|--3--3-3--3-0--|--(0)-00-0---00-0---00--|--2X-----------------------------|
G|--3--3-3--3-0--|--(0)-00-0---00-0---00--|---------------------------------|
C|--3--3-3--3-0--|--(0)-00-0---00-0---00--|---------------------------------|

repeat chorus

Outro
   PM....|    PM                    PM....|              .
D|--------------------|-----|-----|-------------------|---------------------|
A|--------------------|-----|-----|-------------------|---------------------|
F|--------------------|-----|-----|-------------------|---------------------|
C|--0003-005---00-53--|--%--|--%--|--0003-005---3-53--|--0------END---------|
G|--0003-005---00-53--|-----|-----|--0003-00----------|--0------------------|
C|--0003-005---00-53--|-----|-----|--0003-00----------|--0------------------|


| .  sticcato
| /  slide up
| \  slide down
| h  hammer-on
| p  pull-off
| ~  vibrato
| +  harmonic
| x  Mute note
| PM Palm Mute
===============================================================================
Tap to rate this tab
# A B C D E F G H I J K L M N O P Q R S T U V W X Y Z