Guitaretab - guitar tabs
Song name
# A B C D E F G H I J K L M N O P Q R S T U V W X Y Z

Misc Unsigned Bands - The Found - Untitled As Yet tab

-------------------------------------------------------------------------------
			     Untitled as yet - The Found
-------------------------------------------------------------------------------
#----------------------------------PLEASE NOTE---------------------------------#
#This file is the author's own work and represents their interpretation of the #
#song. You may only use this file for private study, scholarship, or research. #
#------------------------------------------------------------------------------#

The Found is our band and this is our first song tabbes for all you folks rock on! 

Tabbed by: The Found- Jack, Brett, Mark, and Lewis.
Email: - 

Tuning: Standard EADGBe

e|---------------------------------------------------------------------------|
B|---------------------------------------------------------------------------|
G|--------------0-------------0----------------------------------------------|
D|---------2-------------2-------------------------0-------------------0-----|
A|----2--------------3----------------------2-------------------2------------|
E|-----------------------------------3-------------------2-------------------|
[ Tab from: http://www.guitaretab.com/m/misc-unsigned-bands/62678.html ]
e|---------------------------------------------------------------------------|
B|-------------------0---------------0---------------------------------------|
G|-------------------0---------------0-----------0-----------------0---------|
D|-------------2-----------------2---------------0-----------------0---------|
A|------2-----------------3------------------2----------------2--------------|
E|---------------------------------------3----------------2------------------|

e|-------------------0--------------0------------0-------------0-------------|
B|---------------------------------------------------------------------------|
G|---------------------------------------------------------------------------|
D|-------------2--------------2----------------------------------------------|
A|-------2---------------3-------------------2-------------2-----------------|
E|--------------------------------------3--------------2---------------------|

e|---------------------------------------------------------------------------|
B|---------------------------------------------------------------------------|
G|------------------0------------0-------------------------------------------|
D|-------------2------------2--------------------0-----------------0---------|
A|--------2-------------3-------------------2-----------------2--------------|
E|-------------------------------------3---------------2---------------------|

e|---------------------------------------------------------------------------|
B|---------------------------------------------------------------------------|
G|---------------------------------------------------------------------------|
D|-----0*--------------------------------------------------------------------|
A|-----2*--------------------------------------------------------------------|
E|-----3*--------------------------------------------------------------------|


| *  let ring
| /  slide up
| \  slide down
| h  hammer-on
| p  pull-off
| ~  vibrato
| +  harmonic
| x  Mute note
===============================================================================
Related for The Found - Untitled As Yet tab