Song name
# A B C D E F G H I J K L M N O P Q R S T U V W X Y Z

Misc Unsigned Bands - Epidural - Path To Chaos tab

-----------------------------------------------------------------------------
			     PATH TO CHAOS - Epidural
-----------------------------------------------------------------------------
Info: Epidural is my band that is just starting, check our website at
www.freewebs.com/epidural the songs will be on there soon.
Tabbed by: richb
Email: bootyrules@hotmail.com

Tuning: normal EADGBe
Intro
e|-------------------------------------------------------------------------|
B|-------------------------------------------------------------------------|
G|-------------------------------------------------------------------------|
D|-------------------------------------------------------------------------|
A|2--2------2------2--2------2--5------------------------------------------|
E|0--0------0------0--0------0--3------------------------------------------|

Verse Riff
e|--------------|----------------|------------------------|----------------|
B|--------------|----------------|------------------------|----------------|
G|--------------|----------------|------------------------|----------------|
D|---------2----|-----------3----|-----------2b4b2b4b2----|-----------3~~~-|
A|0--2--3-------|--0--2--3-------|--0--2--3---------------|--0--2--3-------|
E|--------------|----------------|------------------------|----------------|

Pre Chorus
e|-------------------------------|-----------------------------------------|
B|-------------------------------|-----------------------------------------|
G|-------------------------------|---------2-------3-------2---3-----------|
D|------2-------3-------2---3----|---0-2-3---0-2-3---0-2-3---0---0---------|
A|0-2-3---0-2-3---0-2-3---0---0--|-----------------------------------------|
E|-------------------------------|-----------------------------------------|

Chorus (gtr 1. acoustic) 
e|-------------------------------------------------------------------------|
B|-------------------------------------------------------------------------|
G|-------------------------------------------------------------------------|
D|2--22222222----------------------------------2--22222222-----------------|
A|2--22222222----2--22222222----2--22222222----2--22222222-----------------|
E|---------------2--22222222----3--33333333--------------------------------|


| ~  vibrato
Order
Intro X4
Verse X1
Pre Chorus X2
Verse X1
Pre Chorus X8
Chorus (X1 accoustic) (X1 stabbing chords) (X4 electric strum)(X2 stabbing)
Intro X2
Verse X1
Pre Chorus X4
Chorus (X1 accoustic) (X1 stabbing chords) (X4 electric strum)(X2 stabbing)X2
Tap to rate this tab
 
# A B C D E F G H I J K L M N O P Q R S T U V W X Y Z