Song name
# A B C D E F G H I J K L M N O P Q R S T U V W X Y Z

Misc Unsigned Bands - Death By Monkeys - Tipsy tab

Help us improve GuitareTab! Take a short survey!
Song: Tipsy
Band: Death by Monkeys
Tuning: Standard
Written by: Andrew Rivett & Chris French

This is a song that me and my friend wrote for our band. It is the very first song we
ever wrote. I hope you like it.

Intro Part 1 (guitar 1)

e|-------|
B|-------| Play it with the volume on your guitar turned right down. Turn
G|-------| it up and down as you ring it out. Be sure to finish on the
D|-------| volume you want for the song
A|-------|
E|-0~~~~-|

Intro Part 2 (guitar 1)

e|------------------------------|
B|------------------------------|
G|------------------------------|  x3
D|------------------------------|      Played fast
A|-2-2-2-2-2-2-2-2-2-2-2-2-7-7--|
E|-0-0-0-0-0-0-0-0-0-0-0-0-5-5--|


Verse 1 (guitar 2)

e|-0--|
B|-2--|
G|-2--|  Play as many times as need through the whole verse
D|-2--|
A|-0--|
E|----|

Bridge (guitar 2)

e|-0-0-0-0-0-0-0-0-0-0-|
B|-0-0-0-0-0-0-0-0-0-0-|
G|-1-1-1-1-1-1-1-1-1-1-|
D|-2-2-2-2-2-2-2-2-2-2-|  Exact amount of strums
A|-2-2-2-2-2-2-2-2-2-2-|
E|-0-0-0-0-0-0-0-0-0-0-|

Chorus (guitar 2)

e|-0-|
                    
Related for Death By Monkeys - Tipsy tab