Song name
# A B C D E F G H I J K L M N O P Q R S T U V W X Y Z

Misc Unsigned Bands - Death By Monkeys - Problems tab

Song: Problems
Band: Death By Monkeys
Tuning: Standard
Written By: Andrew Rivett and Chris French


This is a song me and my friend wrote for our band. Being slack, it is very easy and repetitive


Intro/Verse1/Chorus *Heavily Distorted*

e|--------------------------------|
B|--------------------------------|
G|--------------------------------|  Play this as many times as you
D|-2-2-2-2-2-2-2-2-2-2-2-2-2-2-2--|  want. A second guitar plays E
A|-2-2-2-2-2-2-2-2-2-2-2-2-2-2-2--|  with less distortion.
E|-0-0-0-0-0-0-0-0-0-0-0-0-0-0-0--|


Solo *Heavily Distorted*

e|---------------------------------------------------------|
B|---------------------------------------------------------|
G|---------------------------------------------------------|
D|---------------------------------------------------------|
A|-11-11-11-11-11-11-11-11-9-9-9-9-9-9-9-9-7-7-7-7-7-7-7-7-|
E|-9--9--9--9--9--9--9--9--7-7-7-7-7-7-7-7-5-5-5-5-5-5-5-5-|

e|------------------------------------------|
B|------------------------------------------|
G|------------------------------------------|
D|------------------------------------------|
A|-9-9-9-9-9-9-9-9-11-11-11-11-11-11-11-11--|
E|-7-7-7-7-7-7-7-7-9--9--9--9--9--9--9--9---|


Outro *Heavily Distorted*

Guitar 1 Part 1

e|-------------------------------------------|
B|-------------------------------------------|
G|-------------------------------------------|
D|-------------------------------------------|
A|-2-2-2-2-2-2-2-2-6-6--2-2-2-2-2-2-2-2-6-6--|
E|-0-0-0-0-0-0-0-0-4-4--0-0-0-0-0-0-0-0-4-4--|

Guitar 1 Part 2

e|-------------|
B|-------------|
G|-------------|  Continue playing under guitar 2
D|-------------| 
A|-------------|
E|-0-0-0-0-0-0-|

Guitar 2 - Replay Solo


Lyrics/Order:

Intro
Verse:
We all have problems
Mental and physical
We have to deal with em
Or theyll bring us down
With problems that follow us
Like theyre stalking us
We'll never be cool thats suck
But that dont mean shit to us (no chords)

Chorus:
Why doesn't everything go to plan
The way you thought that it would go
When nothing ever goes your way
This is the story of.. of EV - RY - Day!

Solo

Verse 2: (no chords)

When it comes to problems
(expect anything)
Wont always go your way
(expect anything)

Chorus

Outro:

Guitar 1 Part 1
Guitar 2 w Guitar 1 part 2 

I hope you like this song we made up. Im sure you will agree it is very easy.

Cheers!
Tap to rate this tab
# A B C D E F G H I J K L M N O P Q R S T U V W X Y Z