Guitaretab - guitar tabs
Song name
# A B C D E F G H I J K L M N O P Q R S T U V W X Y Z

Misc Unsigned Bands - Fairview - No Need For Lyrics tab

This is a great song by a band that is unsigned out of New Jersey, they've been sending
demos out to small indy labels, watch out for these guys and interest has been shown,
Bass to follow . Props to Cory, their guitarist,who contacted me for the Solo.


Drum Intro

Intro/Verse 1
e|--------------------------------------------------------------------------|
B|--------------------------------------------------------------------------|
G|--------------------------------------------------------------------------|
D|77-555-555-333---77-555-555-333---77-555-555-333---77-555-555-333---------|
A|77-555-555-333---77-555-555-333---77-555-555-333---77-555-555-333---------|
E|55-333-444-111---55-333-444-111---55-333-444-111---55-333-444-111---------|

Repeat

Chorus
e|--------------------------------------------------------------------------|
B|--------------------------------------------------------------------------|
G|--------------------------------------------------------------------------|
D|33333333-44444444-55555555-66666666---------------------------------------|
A|xxxxxxxx-44444444-xxxxxxxx-66666666---------------------------------------|
E|11111111-22222222-33333333-44444444---------------------------------------|
[ Tab from: http://www.guitaretab.com/m/misc-unsigned-bands/63525.html ]
Verse 2
e|--------------------------------------------------------------------------|
B|--------------------------------------------------------------------------|
G|--------------------------------------------------------------------------|
D|-----777------333------999------555---------------------------------------|
A|7777-555-3333-111-9999-777-5555-333---------------------------------------|
E|5555-----1111-----7777-----3333-------------------------------------------|
PM**** *** **** *** **** *** **** ***

Repeat Twice

Chorus

Bridge
e|--------------------------------------------------------------------------|
B|--------------------------------------------------------------------------|
G|6---1010---6---1010---6---1010--------------------------------------------|
D|6---1010--6---1010---6---1010--------------------------------------------|
A|4----8-8---4----8-8---4----8-8--------------------------------------------|
E|--------------------------------------------------------------------------|

Solo
e|-------------------------------------12-------------------------------11--|
B|12-11-----10-13---------9----9-11-9---------------11b99996565 4vv------|
G|------9-9-------11-9h11--12-------------9--13-11-------------------------|
D|--------------------------------------------------------------------------|
A|--------------------------------------------------------------------------|
E|--------------------------------------------------------------------------|

Intro x1
Chorus
Intro x1
Related for Fairview - No Need For Lyrics tab