Song name
# A B C D E F G H I J K L M N O P Q R S T U V W X Y Z

Misc Unsigned Bands - Blue Donkey - Bum Desease tab

Blue Donkey is an amazin band! i saw them play live they sound perfect.
Just remember that you can play this how ever you want and you will sound like BLUE DONKEY!
Amp Settings : full on GAIN and TREBLE
               Distortion on
               everything else on 0

Standard tuning

[123---------------------------123--------]
[---123---------------------123-----------]
[------123---------------123-------1-1-1-1]
[---------123---------123----------2-2-2-2]        x4
[------------123---123-------------2-2-2-2]
[---------------123----------------0-0-0-0]

[123---------------------------123-3-3-3-3]
[---123---------------------123----3-3-3-3]
[------123---------------123-------0-0-0-0]
[---------123---------123----------0-0-0-0]        x4
[------------123---123-------------2-2-2-2]
[---------------123----------------3-3-3-3]

SOLO
[121212----------------------121110967----]
[------13------13----------13---------88--]
[--------14------14------14-----------88--]
[----------15------15--15-------------88--]
[------------16------19-----------------20]
[---------------------------------------18]

[12-13--12-13--------------------456789---]
[-----14-----14---------3-------2------6--]
[--------------9-------2-4-4-4-4--------7-]
[---------------8-----8---6-7-15---------3]
[----------------78943--------------------]
[-----------------------------------------]

[123---------------------------123--------]
[---123---------------------123-----------]
[------123---------------123-------1-1-1-1]
[---------123---------123----------2-2-2-2]        x4
[------------123---123-------------2-2-2-2]
[---------------123----------------0-0-0-0]

[123---------------------------123-3-3-3-3]
[---123---------------------123----3-3-3-3]
[------123---------------123-------0-0-0-0]
[---------123---------123----------0-0-0-0]        x4
[------------123---123-------------2-2-2-2]
[---------------123----------------3-3-3-3]
                                         ..
if you read this tab send me sum critism __
E_mail : Idris@fsmail.net
Mob : 07851 800861
Tap to rate this tab
# A B C D E F G H I J K L M N O P Q R S T U V W X Y Z