Song name
# A B C D E F G H I J K L M N O P Q R S T U V W X Y Z

Misc Unsigned Bands - Mydogtrevor - Who I Used To Be tab

Hey. MyDogTrevor here. We know how much some people like to learn to play other artists
music and we know how much it sucks when you can't get a good tab for a certain song you
wanna learn how to play. that's why we're tabbing our songs out ourselves for anyone who
wants to learn to play them. Oh, and by the way our music is copyrighted so don't even
try to steal our music.

(Main rift)
e]xxxxxxxxxxxxxxxxxxxxxxxxxxxxxxxxxxxxxxxx
b]0000000000000000000000000000002222222222
g]4444444444444444444444444444444444444444
d]4444444444444444444444444444444444444444
a]2222222222222222222222222222222222222222
e]xxxxxxxxxx444444444400000000002222222222

(main lead rift) 2x
e]------------------------------------------------
b]000000002240000000002240000000002240222222224202
g]444444444444444444444444444444444444444444444444
d]444444444444444444444444444444444444444444444444
a]xxxxxxxxxxxxxxxxxxxxxxxxxxxxxxxxxxxxxxxxxxxxxxxx
e]xxxxxxxxxxxxxxxxxxxxxxxxxxxxxxxxxxxxxxxxxxxxxxxx

(pre-chorus and chorus)
e]xxxxxxxxxxxxxxxxxxxx
b]00000000000000000000
g]44444444444444444444
d]44444444444444444444
a]22222222222222222222
e]44444000004444422222

(interlude)
e]---------------------|
b]----0----0----0----0-|
g]---3----3----3----3--|
d]--4----4----4----4---|
a]---------------------|
e]-4----0----4----2----|

(outro)repeat each 4x
e]---------------------|
b]----0----0----0----0-|
g]---3----3----3----3--|
d]--4----4----4----4---|
a]-2-------------------|
e]------4----0----2----|
Tap to rate this tab
# A B C D E F G H I J K L M N O P Q R S T U V W X Y Z