Song name
# A B C D E F G H I J K L M N O P Q R S T U V W X Y Z

Misc Unsigned Bands - Nevergreen - Whynotcom Live tab

Standard Tuning
Band: NeverGreen
Song: Whynot.com (live)
Album: "Say No To Emo" DVD


Starts with drums
:Tabbed by:Daniel
Email:Dantheman1175@aol.com

Guitar One:( guitar two is just an octave down)

e|--------------------------------------------------------------------------------|
B|--------------------------------------------------------------------------------|
G|-99--99--99--99/----------------------------------------------------------------|
D|-99--99--99--99/----------------------------------------------------------------|
A|-77--77--77--77/----------------------------------------------------------------|
E|--------------------------------------------------------------------------------|
Verse/Pre-verse: So you say...
e|------------------------------------------------------------------------------|
B|------------------------------------------------------------------------------|
G|------------------------------------------------------------------------------|
D|--999999991111111111111111----------------------------------------------------|
A|--7777777799999999911111111111777777777---------------------------------------|
E|--------------------9999999999555555555---------------------------------------|x6
Guitar two octaves down on first two notes.

Chorus: Guitar One

e|--------------------------------------|
B|--------------------------------------|
G|--------------------------------------|
D|-77777777-----------------------------|
A|-55555555777777777999999999955555555--|
E|---------555555555777777777733333333--|x4
Chorus (guitar 2)first two times

e|--------------------------------|
B|--------------------------------|
G|--------------------------------|
D|----75--------------------------|
A|-55-------754----76-----23532.--|
E|-------55-----77----3-3---------|x2
Last two times


e|-----------------------------------------------------|
B|----87-----------------------------------------------|
G|-77-----------976-----98----75457( pinch) last time--|
D|---------77---------99----55-------------------------|
A|-----------------------------------------------------|
E|-----------------------------------------------------|
Intro again, then Preverse/verse x6. Guitar two plays ( with talkbox):

e|--444-457-9-9-9-7-5-4---4-4-5-9-9-97--|
B|--------------------------------------|
G|--------------------------------------|
D|--------------------------------------|
A|--------------------------------------|
E|--------------------------------------|

There are a few variations to timing and notes, but you'll get it. It's just going along 
the vocals until the end. The solo is based of the vocal melody with a few variations, 
set an octave down. Pretty easy song, but it's fun.
Chorus x4


| /  slide up
| \  slide down
| h  hammer-on
| p  pull-off
| ~  vibrato
| +  harmonic
| x  Mute note
===============================================================================
Tap to rate this tab
# A B C D E F G H I J K L M N O P Q R S T U V W X Y Z