Song name
# A B C D E F G H I J K L M N O P Q R S T U V W X Y Z

Misc Unsigned Bands - 7 Odds Against - No Name tab

I put the intro and you guys accepted it so here is the full version

standard tuning

intro/main riff {guitar one strums thru out whole song}
e|-----------------------------------------------------------|
B|-----------------------------------------------------------|
G|-----------------------------------------------------------|
D|-000-22-33------33-22------2222-3333-555555-3333-2222-0----|
A|-----------3333-------1111---------------------------------|
E|-----------------------------------------------------------|
P.M.-----------------------------------------------------|

main riff x4 and guitars 2,3 main riff open instead of P.M.

Chorus

e|-------------------------------|
B|-------------------------------|
G|-------------------------------|
D|-0-0-4-5---5-4---4-5-7-5-5-0---| X2
A|-0-0-2-3-5-3-2-3-2-3-5-3-2-0---|
E|---------3-----1---------------|

Main riff same as above

Chorus X2

solo time 

e|--------------------------|
B|--------------------------|
G|--------------------------|
D|--------------------------| X3
A|-----10b---------12b------|
E|-12b-----12b-10b-----10b--|

then 

e|-----------------------------------|
B|-----------------------------------|
G|-----------------------------------|
D|--------12~-12h13p12---------------|
A|-----10--------------13------------|
E|-12b--------------------13-12~-----|

main riff X4

Then intro X2

Tap to rate this tab
# A B C D E F G H I J K L M N O P Q R S T U V W X Y Z