Song name
# A B C D E F G H I J K L M N O P Q R S T U V W X Y Z

Misc Unsigned Bands - 7 Odds Against - Since The Day tab

Help us improve GuitareTab! Take a short survey!
Clean or acoustic

Since the day..........
e|-------------2-------|
B|----3----2--3----2---|
G|---4----2--2----2----|
D|--4----2-------2-----|
A|-2----0---0---0------|
E|---------------------|

Then distorted

e|----------------------------|
B|----------------------------|
G|----------------------------|
D|-0--4----xxxx--6----xxxx----|   X2
A|-0--4X6--xxxx--6X6--xxxx----|
E|-0--2----xxxx--4----xxxx----|

During the second time guitars 2,3 play this

e|-----------------------|
B|-----------------------|
G|--5-7-8-7-5-7-5-8-7----|
D|-----------------------|
A|-----------------------|
E|-----------------------|

then guitar 1

e|--------------------------|
B|--------------------------|
G|-9p7h9p7h9p7h9-10~~~------|
D|--------------------------|
A|--------------------------|
E|--------------------------|
Related for 7 Odds Against - Since The Day tab