Song name
# A B C D E F G H I J K L M N O P Q R S T U V W X Y Z

Misc Unsigned Bands - Killfire - What For tab

KillFire
My band's first song. Pretty amatuer gguitar work but my other songs are in the making,
solos are only half finsihed so I'll post them later.

Drop C Tuning : C G C F A D
Tabber: kruegur_69
Tabbed: 4 October

Intro/Verse
C|-------------------------------------|
G|-------------------------------------|
C|--2---2---2---2---2---2---2---2---2--|
F|-2-2-2-2-2-2-2-2-2-2-2-2-2-2-2-2-2-2-|
A|0---0---0---3---3---0---0------------|
D|----------------------------3---2----|

Chorus
C|------------------------------------|
G|------------------------------------|
C|2222222222222222222222222222222222222
F|2222222222222222222222222222222222222
A|0000000h333333333p000000000xxxxxxxxxx
D|---------------------------h3333p2222

Chorus P2
C|-------------------------------------------------------|
G|-------------------------------------------------------|
C|-------------------------------------------------------|
F|-7-7-7-7-7-7-7-7-9-9-9-9-9-9-9-9-7-7-7-7-3-3-3-3-2-2-2-|
A|-7-7-7-7-7-7-7-7-9-9-9-9-9-9-9-9-7-7-7-7-3-3-3-3-2-2-2-|
D|-7-7-7-7-7-7-7-7-9-9-9-9-9-9-9-9-7-7-7-7-3-3-3-3-2-2-2-|

Bridge (let  all notes ring)
C|------------------------------------|
G|------------------------------------|
C|--2-------2-------2-----------------|
F|-2-2-----2-2-----2-2----------------|
A|0-------3-------0-------------------|
D|----------------------------3---2---|

Chorus P3
C|-----------------------------------------------------------------|
G|-----------------------------------------------------------------|
C|-----------------------------------------------------------------|
F|-7-7-7-7-7-7-7-7-9-9-9-9-9-9-9-9-3-3-3-3-3-3-3-3-2-2-2-2-2-2-2-2-|
A|-7-7-7-7-7-7-7-7-9-9-9-9-9-9-9-9-3-3-3-3-3-3-3-3-2-2-2-2-2-2-2-2-|
D|-7-7-7-7-7-7-7-7-9-9-9-9-9-9-9-9-3-3-3-3-3-3-3-3-2-2-2-2-2-2-2-2-|

Ending
C|-----------------------------------------------------------------|
G|-----------------------------------------------------------------|
C|-----------------------------------------------------------------|
F|-7-7-7-7-7-7-7-7-9-9-9-9-9-9-9-9-3-3-3-3-3-3-3-3-2-2-2-2-2-2-2-2-|
A|-7-7-7-7-7-7-7-7-9-9-9-9-9-9-9-9-3-3-3-3-3-3-3-3-2-2-2-2-2-2-2-2-|
D|-7-7-7-7-7-7-7-7-9-9-9-9-9-9-9-9-3-3-3-3-3-3-3-3-2-2-2-2-2-2-2-2-|
PM . . . . . . . . . . . . . . . . . . . . . . . . . . . . . . . .

C|--------------------------------------------------------------------|
G|--------------------------------------------------------------------|
C|-----------------------------------------------------------------2~-|
F|-7-7-7-7-7-7-7-7-9-9-9-9-9-9-9-9-3-3-3-3-3-3-3-3-2-2-2-2-2-2-2-2-2~-|
A|-7-7-7-7-7-7-7-7-9-9-9-9-9-9-9-9-3-3-3-3-3-3-3-3-2-2-2-2-2-2-2-2-0~-|
D|-7-7-7-7-7-7-7-7-9-9-9-9-9-9-9-9-3-3-3-3-3-3-3-3-2-2-2-2-2-2-2-2----|
PM . .   . .   .   . .   . .   .   . .   . .   .   . .   . .   .

    Order
Intro     X6
Chorus    X2
Verse     X4
Chorus    X2
Chorus P2 X2
Bridge    X2
Chorus    X1
Verse     X2
Chorus P2 X2
Chorus P3 X2
Chorus P4 X1
Tap to rate this tab
# A B C D E F G H I J K L M N O P Q R S T U V W X Y Z