Guitaretab - guitar tabs
Song name
# A B C D E F G H I J K L M N O P Q R S T U V W X Y Z

Misc Unsigned Bands - Paradox - Waters Of Me tab

#----------------------------------PLEASE NOTE---------------------------------#
#This file is the author's own work and represents their interpretation of the #
#song. You may only use this file for private study, scholarship, or research. #
#------------------------------------------------------------------------------#





Gtr I (E A D G B E) - 'waters of me-paradox'

[ Tab from: http://www.guitaretab.com/m/misc-unsigned-bands/64082.html ]
  Q=150
 4/4
  Gtr I
  E E E E E E E E E E E E E E E E E E E E E E E E E E E E E
|-----------------------1-----------0-----------------------|
|-----1-----1-----1-------1-----1-----1-------------1-------|
|---2-----2-----2-----2-----------0-----0-------0-----0-----|
|-2-----2-----3-----3---------2-----------2-------0-----0---|
|---------------------------3-----------------2-----------2-|
|-------------------------------------------3---------------|


    E E E E E
||----------0----|----|
||o-----1--------|----|
||--------2------|----|
||----2----------|----|
||o-0------------|----|
||---------------|----|


                                                        1.      2.
  E E E E E E E E E E E   E E E E E E E E   E E E E E E E E
|---------------0-------|---------0-------|------------------||-----|
|-1---------1-----1-----|-----1-----1-----|---------1-------o||-----|
|---2---------2-----2---|-------0-----0---|-----0-----0------||-----|
|-----2---3-----------3-|---2-----------2-|-------0-----0----||-----|
|-------0---------------|-3---------------|---2-----------2-o||-----|
|-----------------------|-----------------|-3----------------||-----|


|-|
|-|
|-|
|-|
|-|
|-|

Related for Paradox - Waters Of Me tab
Advertisement will be closed in 10 seconds