Song name
# A B C D E F G H I J K L M N O P Q R S T U V W X Y Z

Misc Unsigned Bands - Death By Monkeys - War Of The Worlds tab

Song: War of the Worlds
Band: Death by Monkeys
Tuning: Standard
Written by: Andrew Rivett

Here is a song that I recently wrote. It is kinda punk/metal I think.

Intro

e|----------------------------------------------|
B|------p----------p----------p----------p------|
G|----------------------------------------------|
D|----------------------------------------------|
A|-5\-4---4---5\-4---4---5\-4---4---5\-4---444--|
E|-3-\2-0-2---3-\2-0-2---3-\2-0-2---3-\2-0-222--|

Verse

e|---------------------------------|
B|---------------------------------|
G|---------------------------------|   REPEAT THROUGH VERSE (QUICK)
D|---------------------------------|    
A|-0-2-0-3-0-1-0-2-0-3-0-1-0-2-0-1-|
E|---------------------------------|

e|---------------------------------|
B|---------------------------------|
G|---------------------------------|   PLAY ONCE AT THE END
D|---------------------------------|
A|-0-2-0-2-0-2-0-2-0-2-0-2-0-2x----|
E|---------------------------------|

CHORUS

e|---------------------------------|
B|---------------------------------|
G|---------------------------------|   REPEAT THROUGH CHORUS
D|---------------------------------|
A|-3-3-3-3-3-3-3-3-4-4-4-4-4-4-4-4-|
E|-1-1-1-1-1-1-1-1-2-2-2-2-2-2-2-2-|

INTERLUDE

e|---------------------------------|
B|---------------------------------|
G|---------------------------------|   PLAY TWICE
D|-0-0-0-2-3-2-------0-0-2-3-2-----|  
A|-------------0-0-3---------------|
E|---------------------------------|

e|---------------------------------|
B|---------------------------------|
G|---------------------------------|
D|-0-0-0-2-3-2---------------0-----|
A|-------------0-0-0-0-3-3-3-------|
E|---------------------------------|

OUTRO

e|-----------------------------|
B|-----------------------------|
G|-----------------------------|   PLAY THREE TIMES
D|-----------------------------|
A|-7-7-7-7-7-7-7-7-7-7-7-7-2-2-|
E|-5-5-5-5-5-5-5-5-5-5-5-5-0-0-|

e|-----------------------------|
B|-----------------------------|
G|-----------------------------|
D|-----------------------------|
A|-7-7-7-7-7-7-7-7-7-7-7-7-2-7-|
E|-5-5-5-5-5-5-5-5-5-5-5-5-0-5-|

_ _ _ _ _ _ _ _ _ _ _ _ _ _ _ _ _ _ _ _ _ _ _ _ _ _ _ _ _ _ _ _ _ _ _ _ _ _ _

ORDER:

Intro
Verse
Chorus
Verse
Chorus
Interlude
Chorus 
Outro

So there you go. Im not going to put lyrics because it will take far too long.
Anyway, I hope you like the guitared bits.

Cheers!







Tap to rate this tab
# A B C D E F G H I J K L M N O P Q R S T U V W X Y Z