Song name
# A B C D E F G H I J K L M N O P Q R S T U V W X Y Z

Misc Unsigned Bands - Death By Monkeys - In We Trust tab

Song: In God We Trust
Band: Death by Monkeys
Tuning: Standard
Written By Andrew Rivett

Hi, this song is a work in progress, i will update as i right it.

INTRO

e|-----------------------------------------------------------------|
B|-----------------------------------------------------------------|
G|-----------------------------------------------------------------|
D|-----------------------------------------------------------------|
A|-----------------------------------------------------------------|
E|-0-2-2-2-2-2-2-2-0-3-3-3-3-3-3-3-0-4-4-4-4-4-4-4-0-3-3-3-3-3-3-3-|

PM . . . . . . . . . . . . . . . . . . . . . . . . . . . . . . . . 

VERSE 1

e|---------------------------------|
B|---------------------------------|
G|---------------------------------|
D|---------------------------------|
A|---------------------------------|
E|-0-2-2-2-0-3-3-3-0-4-4-4-0-3-3-3-|

VERSE 2

e|---------------------------------|
B|---------------------------------|
G|---------------------------------|
D|---------------------------------|
A|-2-4-4-4-2-5-5-5-3-6-6-6-3-5-5-5-|
E|-0-2-2-2-0-3-3-3-0-4-4-4-0-3-3-3-|


That is all i have so far (sorry) stay tuned for the completion when my creative juuices start to flow.


Tap to rate this tab
 
# A B C D E F G H I J K L M N O P Q R S T U V W X Y Z