Song name
# A B C D E F G H I J K L M N O P Q R S T U V W X Y Z

Misc Unsigned Bands - Every Skeebs Has Its Thorn - Nick Somma Can Lick My Nuts tab

-------------------------------------------------------------------------------
              NICK SOMMA CAN LICK MY NUTS - Every Skeebs Has Its Thorn
-------------------------------------------------------------------------------

Tuning: Standard (eBGDAE)

Power Chords repeated through the song.

e|---------------------------------------------------------------------------|
B|---------------------------------------------------------------------------|
G|-------7--5--8-------------------------------------------------------------|
D|----7--7--5--8-------------------------------------------------------------|
A|----7--5--3--6-------------------------------------------------------------|
E|----5----------------------------------------------------------------------|

Interlude

e|--5555555575-4444444474-2222222252-1111111141------------------------------|
B|---------------------------------------------------------------------------|
G|---------------------------------------------------------------------------|
D|---------------------------------------------------------------------------|
A|---------------------------------------------------------------------------|
E|---------------------------------------------------------------------------|

And that's it. Very simple song. Wonder who Nick Somma is?
Tap to rate this tab
 
# A B C D E F G H I J K L M N O P Q R S T U V W X Y Z