Song name
# A B C D E F G H I J K L M N O P Q R S T U V W X Y Z

Misc Unsigned Bands - Silbermond - Zeit Fur Optimisten tab

also ich hab mich mal angestrengt und versucht die akkorde rauszufinden von "zeit für optimisten": 
intro/verse: 
D5 Bb5 F5 

chorus: 
F5 G5 Bb5 D5 C5 Bb5 

2verse: 
das ist der teil wo thomas kurz alleine spielt: 
e|----------------------------------| 
B|----------------------------------| 
G|----9---10----12----14------------| 
D|----x---x-----x------x------------|das macht thomas 2xmal 
A|----7---8-----10----12------------| 
E|----------------------------------| 

dann kommt wieder verse: 
D5 Bb5 F5 

dann der rockige teil: 
F5 G5 G#5 dann kommt das: 

e|------------------------------| 
B|------------------------------| 
G|------------------------------| 
D|------------------------------| 
A|------------------------------| 
E|-----6--4--6---4--------------| 


F5 G5 G#5 
e|----------------------------------| 
B|----------------------------------| 
G|----------------------------------| 
D|----------------------------------| 
A|-----4---3---4----3---------------| 
E|----------------------------------| 

ich hoffe ihr blickt da einigermaßen durch. 
viel spass:)

Tap to rate this tab
# A B C D E F G H I J K L M N O P Q R S T U V W X Y Z