Song name
# A B C D E F G H I J K L M N O P Q R S T U V W X Y Z

Misc Unsigned Bands - Flight Of The Concords - Jenny tab

-------------------------------------------------------------------------------
			     SONG NAME - Band Name
-------------------------------------------------------------------------------
Tabbed by: JSL
Email:jattlo@aol.com

Tuning:Normal

Verse

e|--------10-----------x----------9------------10---------------------------|
B|--------10-----------x----------10-----------11---------------------------|
G|--------11-----------11---------11-----------12---------------------------|
D|--------12-----------11---------11-----------12---------------------------|
A|--------12-----------12---------9------------10---------------------------|
E|--------10-----------9----------x-------------x---------------------------|
Break Down


D---A--G#---A

The D and A are open chords and the G# and A are barred
Tap to rate this tab
# A B C D E F G H I J K L M N O P Q R S T U V W X Y Z