Song name
# A B C D E F G H I J K L M N O P Q R S T U V W X Y Z

Misc Unsigned Bands - Black Phoenix - Sun And Snow tab

hey peoples, sun and snow is a gr8 song so i thought i'd tab it. i wrote it so here is
a self obsessed basards drunken view of how it goes.


intro

E,G,A,B, (listen to song for rhythm)

link
B,A,D,B

verse 1

this is the day that i knew you would come,
B,A,D,B

i missed you more than i would my soul,
B,A,D,B

this is the day that i knew you would come,
B,A,D,B

so come on baby cos i'm on a roll!
B,A,D,B

link
B,A,G,E,

chourus
E,E,E,G,A, (again listen to the song for rhythm)

        E   E   E
cos i stuck by you
G,A,
  E   E   E
stuck by you,
G,A,

stuck by you through the sun and snow

and i was struck by you through the sun and snow.

link

B,A,D,B

verse 2

as i look into your eyes and i see your face,

your a marathon runner in the human race,

you light up my life and surround me with glory,

story tellers here's your story

link

B,A,G,E,

chourus

solo

E 7-9-10-9---10-12----------------------------------------------------|
B ---------10-----12-10-----------------------------------------------|
G ---------------------12-10--------------------9(bend)7-9-7-9----7-9-|
D --------------------------12-10------------7-9--------------9-7-9---|
A -------------------------------12-10-12-7-9-------------------------|
E --------------------------------------------------------------------|

E -------7-7-9-10-9---------------------------------------------------|
B 10-9-7-----------10-7-9-7-------------------------------------------|
G -------------------------9-7----------------------------------------|
D ----------------------------9---------------------------------------|
A --------------------------------------------------------------------|
E --------------------------------------------------------------------|

verse 3

as i sat in a house in a darkened room,

my mind filled with doom and gloom,

all i wanted was to see your face,

so i finally knew, finally knew

chourus x2

outro

B,A,G,E,(listen to song for rhythm)

so there it is. black pheonix's sun and snow guitar chords and solo
Tap to rate this tab
 
# A B C D E F G H I J K L M N O P Q R S T U V W X Y Z