Song name
# A B C D E F G H I J K L M N O P Q R S T U V W X Y Z

Misc Unsigned Bands - Touching Good Story - Do It Like James Bond tab

Help us improve GuitareTab! Take a short survey!
Artist: Touching Good Story
Song: Do It Like James Bond

* = Palm-muted
/ = Slide
~ = Ring Out

INTRO 1 (Both Guitars)
E|-----------------------------------------------------------------|
B|-----------------------------------------------------------------|
G|-----------------------------------------------------------------|
D|55555555x2222222x3333333x2222222x55555555x2222222x3333333x2222222
A|33333333x3333333x3333333x3333333x00000000x0000000x0000000x0000000
D|-----------------------------------------------------------------
  *****************************************************************

E|-------------------------------------------------------------|
B|-------------------------------------------------------------|
G|-------------------------------------------------------------|
D|55555555x2222222x3333333x2222222x55555555x5555555x5555555x555
A|33333333x3333333x3333333x3333333x55555555x5555555x5555555x555
D|33333333x3333333x3333333x3333333x55555555x5555555x5555555x555
  *********************************************

INTRO 2 (Lead)

E|----------------------------     -------------------------------------|
B|----------------------------     -------------------------------------|
G|12121212999999101010999999--     12121212141414141616161617171717/----|
D|xxxxxxxxxxxxxxxxxxxxxxxxxx-- x3  xxxxxxxxxxxxxxxxxxxxxxxxxxxxxxxx/----| x1
A|10101010777777888888777777--     10101010121212121414141415151515/----|
D|----------------------------     -------------------------------------|

INTRO 2 (Rhythm)

E|-----------------------------------------------------------------|
B|-----------------------------------------------------------------|
G|55555555555555---------------------------------------------------|
D|5555555555555577777777777777333333333333333335555555555555-------|
A|3333333333333377777777777777333333333333333335555555555555-------|
D|--------------77777777777777333333333333333335555555555555-------|


VERSE (Lead)
E|-----------------    -----------    ----------------    -----------|
B|-----------------    -----------    ----------------    -----------|
G|----12--10----9--    --12-10--9-    ----12--10----9-    --12-10--9-|
D|1010--10--1010--- x4 77--7--77-- x4 ---------------- x4 -----------| x4
A|-----------------    -----------    1010--10--1010--    88--8--88--|
D|-----------------    -----------    ----------------    -----------|
  * *   *   * *        **  *  **      * *   *   * *       **  *  **

VERSE (Rhythm)

E|--------------------------------------------------------------------------|
B|--------------------------------------------------------------------------|
G|--------------------------------------------------------------------------|
D|5555555555555555557777777777777777755555555555555555333333333333333333333-
A|3333333333333333337777777777777777755555555555555555333333333333333333333-
D|------------------7777777777777777755555555555555555333333333333333333333-
  *************************************************************************

CHORUS (Lead)

E|----------------------------------------------------|
B|----------------------------------------------------|
G|---12-----9-----12-----9-----12-----9---12121210109-|
D|910--10910-10910--10910-10910--10910-10-xxxxxxxxxxx-|  x4
A|----------------------------------------10101088887-|
D|----------------------------------------------------|

CHORUS (Rhythm)

E|-------------------------------------------------------------------|
B|-------------------------------------------------------------------|
G|5555555555-----------------------5555555555------------------------|
D|55555555555555555577777773333333-555555555555555555222222223333333-  x2
A|33333333335555555577777773333333-333333333355555555222222223333333-
D|----------5555555577777773333333-----------55555555222222223333333-


VERSE


CHORUS


BRIDGE 1 (Lead/Clean)

E|------------    -------------    -------------    -------------    ------|
B|------------    -------------    -------------    -------------    ------|
G|--5-4--5--4-    ---5-4--5--4-    ---5-4--5--4-    ---5-4--5--4-    -7777-|
D|-5-5-5--5--- x2 --5-5-5--5--- x2 --5-5-5--5--- x2 --5-5-5--5--- x2 -5555-|
A|3-----3--3--    -0-----0--0--    -------------    -------------    ------|
D|------------    -------------    -3-----3--3--    -5-----5--5--    ------|

E|------------    -------------    -------------    -------------    ------|
B|------------    -------------    -------------    -------------    ------|
G|--5-4--5--4-    ---5-4--5--4-    ---5-4--5--4-    ---5-4--5--4-    -7777-|
D|-5-5-5--5--- x2 --5-5-5--5--- x2 --5-5-5--5--- x2 --5-5-5--5--- x2 -5555-|
A|3-----3--3--    -0-----0--0--    -------------    -------------    ------|
D|------------    -------------    -3-----3--3--    -5-----5--5--    ------|

BRIDGE 1 (Rhythm)

E|-----
B|-----
G|-5~~~
D|-x~~~
A|-3~~~
D|-----

E|-----------------------------------------------------------------|
B|-----------------------------------------------------------------|
G|55555555555555---------------------------------------------------|
D|5555555555555577777777777777333333333333333335555555555555-------|
A|3333333333333377777777777777333333333333333335555555555555-------|
D|--------------77777777777777333333333333333335555555555555-------|
  **********************************************************

BRIDGE 2 (Lead)

E|-----------------------------------     -----------------------|
B|-----------------------------------     -----------------------|
G|1212121212121010101099999997777777-     -121212121212999999x10-|
D|xxxxxxxxxxxxxxxxxxxxxxxxxxxxxxxxxx- x3  -xxxxxxxxxxxxxxxxxxxxx-
A|1010101010108888888877777775555555-     -101010101010777777x88-|
D|-----------------------------------     -----------------------|

BRIDGE 2 (Rhythm)

E|-------------------------------------------------------------------|
B|-------------------------------------------------------------------|
G|5555555555-----------------------5555555555------------------------|
D|55555555555555555577777773333333-555555555555555555222222223333333-
A|33333333335555555577777773333333-333333333355555555222222223333333-
D|----------5555555577777773333333-----------55555555222222223333333-

E|------------------------------------------------------|
B|------------------------------------------------------|
G|5555555555-----------------------5555555555-----------|
D|55555555555555555577777773333333-55555555555555555522-
A|33333333335555555577777773333333-33333333335555555522-
D|----------5555555577777773333333-----------5555555522-


CHORUS


End Chord

E|-----
B|-----
G|-5~~~
D|-x~~~
A|-3~~~
D|-----
Related for Touching Good Story - Do It Like James Bond tab