Song name
# A B C D E F G H I J K L M N O P Q R S T U V W X Y Z

Misc Unsigned Bands - Closedown - Deflexion And Polarities tab

Intro

 e|------0----0----0-|-------8-7----7-----|-------8-7---|
 B|------4----4----4-|-----------8----8---|-5-0-------8-|
 G|------5----5----5-|----5-------------7-|-----5-------|
 D|-7777---77---77---|-555-5--------------|-------------|
 A|-7777---77---77---|--------------------|-------------|
 D|-7777---77---77---|--------------------|-------------|
PM| ....   ..   ..   | .....            2x|             |

 e|------0----0----0-|-------8-7---|--------------|
 B|------4----4----4-|-5-0-------8-|-----------8--|
 G|------5----5----5-|-----5-------|-----5--------|
 D|-7777---77---77---|-------------|-/7-----7-----|
 A|-7777---77---77---|-------------|--------------|
 D|-7777---77---77---|-------------|--------------|
PM| ....   ..   ..   |           3x|              |

www.closedown.cjb.net / www.freedumb-records.com
Tap to rate this tab
 
# A B C D E F G H I J K L M N O P Q R S T U V W X Y Z