Song name
# A B C D E F G H I J K L M N O P Q R S T U V W X Y Z

Misc Unsigned Bands - The Upside - Untitled tab

the Upside
song: untitled
this is 100%
tuning (drop d)


intro
  ------------------------------------------------------------------------|
  ------------8-8-8-8-8-8-8-8-8-8-8-8-----------8-8-8-8-8-8-8-8-8-8-8-8---|
  ------------8-8-8-8-8-8-8-8-8-8-8-8-----------8-8-8-8-8-8-8-8-8-8-8-8---|
  ---6-6-6-6---------------------------8-8-8-8----------------------------|
  ---6-6-6-6---------------------------8-8-8-8----------------------------|
  ---6-6-6-6---------------------------8-8-8-8----------------------------|

  ------------------------------------------------------------------------|
  ------------------------------------------------------------------------|
  ----------------12-----------(and again)--------------------------------|
  ----------------13-(x12)------------------------------------------------|
  ---10-10-10-10----------------------------------------------------------|
  ---10-10-10-10----------------------------------------------------------|

  verse: play this part  twice
  ------------------------------------------------------------------------|
  --------8-----------8---------------------------------------------------|
  --------8--(x4)-----8--(x4)-------12--(x8)------------------------------|
  ---6-6-----------8----------------13------------------------------------|
  ---6-6-----------8------------10----------------------------------------|
  ---6-6-----------8------------10----------------------------------------|

  chorus:
  ------------------------------------------------------------------------|
  ------------------------------------------------------------------------|
  ------------------------------------------------------------------------|
  ------------------------------------------------------------------------|
  ------------------------------------------------------------------------|
  ------------------------------------------------------------------------|

  this is only half ive got to finish it off......
Tap to rate this tab
# A B C D E F G H I J K L M N O P Q R S T U V W X Y Z