Guitaretab - guitar tabs
Song name
# A B C D E F G H I J K L M N O P Q R S T U V W X Y Z

Misc Unsigned Bands - False Habit - Carry On tab

Artist:False Habit
Song:Carry On
Website:www.falsehabit.tk
Tabbed by:abba123
Email: -

Tuning:standard

Intro

e|----------------|
B|----------------|
G|-----------7----|
D|-999999-77-7----| x4
A|-999999-77-5----|
E|-777777-55------|

Verse

e|--------------------------------------|
B|--------------------------------------|
G|--------------------------------------|
D|-99999999-77777777-99999999-44444444--| x4
A|-99999999-77777777-99999999-44444444--|
E|-77777777-55555555-77777777-22222222--|

Chorus

e|-------------------------|
B|-------------------------|
G|-------------------------|
D|-222222-444444-99999999--| X2
A|-222222-444444-99999999--|
E|-000000-222222-77777777--|
[ Tab from: http://www.guitaretab.com/m/misc-unsigned-bands/64691.html ]
Intro
Verse
Chorus
Intro (x4)

Middle Section

       Section 1           2          3
e|---------------------|-------|-0~~--------|
B|---------------------|-------|----0~~-----|
G|-------------333-----|-------|-------0~~--|
D|-5-55555-333-333--x4-|--5~~--|------------|
A|-5-55555-333-111-----|--5~~--|------------|
E|-3-33333-111---------|--3~~--|------------|

Section 1
Verse
Chorus
Intro (no drum or bass)

Finish On:  E---------|
            B---------|
            G---------|
            D--9-//---|
            A--9-//---|
            E--7-//---|

| /  slide up
| \  slide down
| h  hammer-on
| p  pull-off
| ~  vibrato
| +  harmonic
| x  Mute note
=========================================================================
Related for False Habit - Carry On tab
Advertisement will be closed in 10 seconds