Song name
# A B C D E F G H I J K L M N O P Q R S T U V W X Y Z

Misc Unsigned Bands - Eszter - Szabadsag tab

Kökényesi Eszter: Szabadság by
the writer

esztercat@citromail.hu
(2005)

Dm: 000231
Am: 002210
G:  320033
C:  032010
F:  033210 or 033211

Intro:

  Dm                        Am

E--3----------3--------------0----------0------|
B------3---------3---------------1--------1----|
G---------2---------2--------------2--------2--|
D--0-------------------------------------------|
A----------------------------0-----------------|
E----------------------------------------------|


 G                     G

E--3----------3---------3---------3------------|
B-----3---------3----------3--------3----------|
G-------0--------0-----------0--------0--------|
D----------------------------------------------|
A----------------------------------------------|
E--3--------------------3----------------------|


  Dm                        Am

E--3----------3--------------0----------0------|
B------3---------3---------------1--------1----|
G---------2---------2--------------2--------2--|
D--0-------------------------------------------|
A----------------------------0-----------------|
E----------------------------------------------|

   G                   G

E--3-------------------3--3-3-3----------------|
B----------------------------------------------|
G----------------------------------------------|
D----------------------------------------------|
A----------------------------------------------|
E--3-------------------------------------------|

Verse:


  Dm                        Am

E--3----------3--------------0----------0------|
B------3---------3---------------1--------1----|
G---------2------------------------2-----------|
D--0-------------------------------------------|
A----------------------------0-----------------|
E----------------------------------------------|
              Szabad-        ság,


   G                   G

E--3---------3---------3---------3-------------|
B-----3--------3----------3--------3-----------|
G--------0-------------------0-----------------|
D----------------------------------------------|
A----------------------------------------------|
E--3-------------------3-----------------------|
   mire...

  Dm                        Am

E--3----------3--------------0----------0------|
B------3---------3---------------1--------1----|
G---------2------------------------2-----------|
D--0-------------------------------------------|
A----------------------------0-----------------|
E----------------------------------------------|
              Szabad-        ság

  Dm                        Am

E--0---------0---0---0-------------------------|
B-----1-------1---1----1-----------------------|
G------0-------2---2---------------------------|
D----------------------------------------------|
A--3-------------------------------------------|
E----------------------------------------------|
  csak egy...

Verse 2.:

  Dm                        Am
E--3----------3--------------0----------0------|
B------3---------3---------------1--------1----|
G---------2---------2--------------2-----------|
D--0-------------------------------------------|
A----------------------------0-----------------|
E----------------------------------------------|
              Szomorú        könnyeidből


 G                     G

E-3----------3---------3---------3------------|
B-----3--------3----------3-------------------|
G-------0-------------------------------------|
D-----------------0---------------------------|
A---------------------------------------------|
E-3-------------------------------------------|
  új patak...


  Dm                        Am

E--3----------3--------------0----------0------|
B------3---------3---------------1--------1----|
G---------2------------------------2-----------|
D--0-------------------------------------------|
A----------------------------0-----------------|
E----------------------------------------------|
              Meríts         belőle...

      C

E-----0---------0---0---0----------------------|
B--------1-------1---1----1--------------------|
G---------0-------2---2------------------------|
D----------------------------------------------|
A-----3----------------------------------------|
E----------------------------------------------|
      megtaláld...

Chorus:

F      G              C
Ha már minden gyertya rég csonkig ég,

F      C             G
ne add fel a reményt semmiért,

F      G           C
ha már mindenegyes nap csak egy pillanat,

F                  G
légy, ki voltál, s leld meg önmagad!

Ending:

  Dm                        Am

E--3----------3--------------0----------0------|
B------3---------3---------------1--------1----|
G---------2------------------------2-----------|
D--0-------------------------------------------|
A----------------------------0-----------------|
E----------------------------------------------|

      G                   G

E-----3---------3---------3---------3-----------|
B--------3--------3----------3--------3---------|
G-----------0-------------------0---------------|
D-----------------------------------------------|
A-----------------------------------------------|
E-----3-------------------3---------------------|


  Dm                        Am
E--3----------3--------------0----------0-------|
B------3---------3---------------1--------1-----|
G---------2------------------------2------------|
D--0--------------------------------------------|
A----------------------------0------------------|
E-----------------------------------------------|
              Szabad-        sááááááááááááááááá


      G                   G                Dm

E-----3---------3---------3---------3------1-|
B--------3--------3----------3--------3----3-|
G-----------0-------------------0----------2-|
D------------------------------------------x-|
A------------------------------------------x-|
E-----3-------------------3----------------x-|
      áááááááááááááááááááááááááááááááááááág

lyric:

Szabadság, mire mindig is vágytál,
szabadság, csak egy múló pillanat,
szabadság, csak egy karnyújtásnyi álom,
szabadság, mi önmagad, te vagy.

Szomorú könnyeidből új patak fakad,
meríts belőle, hogy megtaláld magad,
szemed tüzében a szabadság lángja ég,
legyél az, ki lenni akartál rég!

chorus@
Tap to rate this tab
# A B C D E F G H I J K L M N O P Q R S T U V W X Y Z