Song name
# A B C D E F G H I J K L M N O P Q R S T U V W X Y Z

Misc Unsigned Bands - Mental Defectice - Why tab

We are a new band, we are from 14-15 years of age. This is a hard rockin song and it is
very morbid if you hit it right. So here it is.


* pinch harmonic
*b pinch harmonic with a bending movement up and down
~ let ring
PM palm muted

Intro
|--------------------------------------------|
|--------------------------------------------|
|--------------------------------------------|
|--------------------------------------------|
|-1--3--2--3--4------------------------------|
|-1--3--2--3--4--0*~~~~----------------------|

Bridge 1 x2
|------------------------------------------------|
|------------------------------------------------|
|------------------------------------------------|
|------3*-------3*4*-------3*-------3*4*5*-------|
|-0-000----0-000------0-000----0-000-------------|
|-0-000----0-000------0-000----0-000-------------|
PM-----  PM-----    PM-----  PM-----

Verse
|-------------------------------------------------------------------------|
|-------------------------------------------------------------------------|
|-------------------------------------------------------------------------|
|-------------------------------------------------------------------------|
|-5~~~-5555555555555----5555556666666----5555555555555----5555555555555---|
|-5~~~-3333333333333-3*-3333334444444-3*-3333333333333-5*-3333333333333-5*|

Bridge 1 x2
|------------------------------------------------|
|------------------------------------------------|
|------------------------------------------------|
|------3*-------3*4*-------3*-------3*4*5*-------|
|-0-000----0-000------0-000----0-000-------------|
|-0-000----0-000------0-000----0-000-------------|
PM-----  PM-----    PM-----  PM-----

Chorus
|---------------------------------------------------------|
|---------------------------------------------------------|
|---------------------------------------------------------|
|---------------------------------------------------------|
|-0~~~-3~~~-1~~~-2~~~-------------------------------------|
|-0~~~-1~~~-1~~~-0~~~-------------------------------------|
PM-------------------

Bridge 1 x2
|------------------------------------------------|
|------------------------------------------------|
|------------------------------------------------|
|------3*-------3*4*-------3*-------3*4*5*-------|
|-0-000----0-000------0-000----0-000-------------|
|-0-000----0-000------0-000----0-000-------------|
PM-----  PM-----    PM-----  PM-----

Verse
|-------------------------------------------------------------------------|
|-------------------------------------------------------------------------|
|-------------------------------------------------------------------------|
|-------------------------------------------------------------------------|
|-5~~~-5555555555555----5555556666666----5555555555555----5555555555555---|
|-5~~~-3333333333333-3*-3333334444444-3*-3333333333333-5*-3333333333333-5*|

Bridge 2 x2
|------------------------------------------------------|
|------------------------------------------------------|
|------------------------------------------------------|
|--------------3*-----------3*4*5*---------------------|
|-0-0-0-0-0-0-0--0-0-0-0-0-0---------------------------|
|-0-0-0-0-0-0-0--0-0-0-0-0-0---------------------------|
PM-------------  ---------

Bridge 1 x2
|------------------------------------------------|
|------------------------------------------------|
|------------------------------------------------|
|------3*-------3*4*-------3*-------3*4*5*-------|
|-0-000----0-000------0-000----0-000-------------|
|-0-000----0-000------0-000----0-000-------------|
PM-----  PM-----    PM-----  PM-----

Chorus
|---------------------------------------------------------|
|---------------------------------------------------------|
|---------------------------------------------------------|
|---------------------------------------------------------|
|-0~~~-3~~~-1~~~-2~~~-------------------------------------|
|-0~~~-1~~~-1~~~-0~~~-------------------------------------|
PM-------------------

Bridge 1 x2
|------------------------------------------------|
|------------------------------------------------|
|------------------------------------------------|
|------3*-------3*4*-------3*-------3*4*5*-------|
|-0-000----0-000------0-000----0-000-------------|
|-0-000----0-000------0-000----0-000-------------|
PM-----  PM-----    PM-----  PM-----

Verse
|-------------------------------------------------------------------------|
|-------------------------------------------------------------------------|
|-------------------------------------------------------------------------|
|-------------------------------------------------------------------------|
|-5~~~-5555555555555----5555556666666----5555555555555----5555555555555---|
|-5~~~-3333333333333-3*-3333334444444-3*-3333333333333-5*-3333333333333-5*|

Bridge 3 x4
|--------------------------------------------------|
|--------------------------------------------------|
|--------------------------------------------------|
|--------------------------------------------------|
|-00300400-----------------------------------------|
|-003004005*b4*b-----------------------------------|
PM-- -- --

Bridge 2 x2
|------------------------------------------------------|
|------------------------------------------------------|
|------------------------------------------------------|
|--------------3*-----------3*4*5*---------------------|
|-0-0-0-0-0-0-0--0-0-0-0-0-0---------------------------|
|-0-0-0-0-0-0-0--0-0-0-0-0-0---------------------------|
PM-------------  ---------

Bridge 1 x2
|------------------------------------------------|
|------------------------------------------------|
|------------------------------------------------|
|------3*-------3*4*-------3*-------3*4*5*-------|
|-0-000----0-000------0-000----0-000-------------|
|-0-000----0-000------0-000----0-000-------------|
PM-----  PM-----    PM-----  PM-----

Outro
|-------------------------------------------------------------------------|
|-------------------------------------------------------------------------|
|-------------------------------------------------------------------------|
|-------------------------------------------------------------------------|
|-0-0--5~-0-0--5-4-0-0--5~-0-0---------0-0--5~-0-0--5-4-0-0--5~-0-0--5-4-3|
|-0-0--5~-0-0--5-4-0-0--5~-0-0--5*4*3*-0-0--5~-0-0--5-4-0-0--5~-0-0--5-4-3|
PM---     ---      ---     ---         ---     ---      ---     ---  

There it is hope you enjoyed it. Please send your comments about the song to
ellisonmotorsports@yahoo.com
Tap to rate this tab
 
# A B C D E F G H I J K L M N O P Q R S T U V W X Y Z