Song name
# A B C D E F G H I J K L M N O P Q R S T U V W X Y Z

Misc Unsigned Bands - Genuine Innocence - Genuine Innocence tab

                                GENUINE INNOCENCE
                        As recorded by Genuine Innocence

Music by Genuine Innocence
Transcribed by Genuine Innocence

   Intro
    Q=180
   4/4
    Gtr I
||------------------|-----------------|-----------------|--------------------||
||o-----------------|-3-3-3-3-3-3-3-3-|-2-2-2-2-2-2-2-2-|-0-0-0-0-0-0-0-0---o||
||--2-2-2-2-2-2-2-2-|-2-2-2-2-2-2-2-2-|-2-2-2-2-2-2-2-2-|-1-1-1-1-1-1-1-2----||
||--4-4-4-4-4-4-4-4-|-----------------|-----------------|--------------------||
||o-----------------|-----------------|-----------------|-------------------o||
||------------------|-----------------|-----------------|--------------------||


                                        1.
   4/4
||------------------|-----------------|-----------------|
||o-----------------|-3-3-3-3-3-3-3-3-|-2-2-2-2-2-2-2-2-|
||--2-2-2-2-2-2-2-2-|-2-2-2-2-2-2-2-2-|-2-2-2-2-2-2-2-2-|
||--4-4-4-4-4-4-4-4-|-----------------|-----------------|
||o-----------------|-----------------|-----------------|
||------------------|-----------------|-----------------|
|
|   Gtr II
||------------------|-----------------|-----------------|
||o-----------------|-----------------|-----------------|
||------------------|-----------------|-----------------|
||------------------|-7-7-7-7-7-7-7-7-|-7-7-7-7-7-7-7-7-|
||o-4-4-4-4-4-4-4-4-|-5-5-5-5-5-5-5-5-|-4-4-4-4-4-4-4-4-|
||--2-2-2-2-2-2-2-2-|-----------------|-----------------|


                      2.
|------------------||------------------|--------------------|
|-0-0-0-0-0-0-0-0-o||--5-5-5-5-5-5-5-5-|-0-0-0-0-0-0-0-0----|
|-1-1-1-1-1-1-1-2--||--4-4-4-4-4-4-4-4-|-1-1-1-1-1-1-1-2----|
|------------------||------------------|--------------------|
|-----------------o||------------------|--------------------|
|------------------||------------------|--------------------|
|
|------------------||------------------|--------------------|
|-----------------o||------------------|--------------------|
|------------------||------------------|--------------------|
|-4-4-4-4-4-4-4----||--9-9-9-9-9-9-9-9-|-4-4-4-4-4-4-4------|
|-2-2-2-2-2-2-2-2-o||--7-7-7-7-7-7-7-7-|-2-2-2-2-2-2-2-0----|
|------------------||------------------|--------------------|


   Verse
                                  1.
    Gtr I
||---------------|--------------|----------------|
||o--------------|--------------|----------------|
||---------------|-7-7-x---7----|-6-6--x----6----|
||--4-4-----4----|-7-7-x-7-7----|-7-7--x--7-7----|
||o-4-4-x-4-4----|-5-5-x-5-5----|-4-4--x--4-4----|
||--2-2-x-2-2----|--------------|----------------|
|
||---------------|--------------|----------------|
||o--------------|-----7--------|----------------|
||------2-4------|-7-9---9-7----|-----------9----|
||--2-4-----4----|--------------|-7-7-(7)-9------|
||o--------------|--------------|----------------|
||---------------|--------------|----------------|


                    2.
                 4x
|----------------||-----------------------|-------------------|
|---------------o||-----------------------|-------------------|
|-4-4-x-x-2------||-9--9--x-----9---------|--4-4--x----2------|
|-4-4-x-x-2------||-9--9--x--9--9---------|--4-4--x-2--2------|
|-2-2-x-x-0-----o||-7--7--x--7--7---------|--2-2--x-0--0------|
|----------------||-----------------------|-------------------|
|
|                4x
|----------------||-----------------------|-------------------|
|---------------o||------------10-11b12---|-------------------|
|----------------||-9-11-11-11------------|-11---11---11--9---|
|---9-----9s6----||-----------------------|-------------------|
|-7-----7-------o||-----------------------|-------------------|
|----------------||-----------------------|-------------------|


                                          1.
    Gtr I
    PM-----------------------------------------------------
||--------------------|-----------------|-----------------|
||o-------------------|-----------------|-----------------|
||--------------------|-7-7---7-7-------|-6-6---6-6-------|
||--4-4---4-4---------|-7-7-x-7-7-------|-7-7-x-7-7-------|
||o-4-4-x-4-4---------|-5-5-x-5-5-------|-4-4-x-4-4-------|
||--2-2-x-2-2---------|-----------------|-----------------|
|
|     Gtr II
||--------------------|-----------------|-----------------|
||o-------------------|---------7-------|-----------------|
||------------6-------|-7-7-9-7---7-9-7-|---------9-------|
||----4-4-6-4---4-6-4-|-----------------|-7-7-9-7---7-9-7-|
||o-------------------|-----------------|-----------------|
||--------------------|-----------------|-----------------|


                      2.
 ---------|
                   4x
|------------------||-----------------|--------------------|
|-----------------o||-----------------|--------------------|
|-4-4---2-2--------||-9-9---9-9-------|-4-4---2-2----------|
|-4-4-x-2-2--------||-9-9-x-9-9-------|-4-4-x-2-2----------|
|-2-2-x-0-0-------o||-7-7-x-7-7-------|-2-2-x-0-0----------|
|------------------||-----------------|--------------------|
|
|                  4x
|------------------||-----------------|--------------------|
|-----------------o||-7-7-5-----------|--------------------|
|---------4--------||-------7-6-4-----|--------------------|
|-2-2-4-2---2-4-2--||-------------7-4-|---7-7-7-9--9--7----|
|-----------------o||-----------------|--------------------|
|------------------||-----------------|--------------------|


 Chorus
|-----------|-----------|-----------------|------------------|-----------|
|-----------|-----------|-----------------|------------------|-7----6----|
|-7----6----|-4----2----|-----------------|------------------|-7----6----|
|-7----6----|-4----2----|-4---------------|-4--------------4-|-7----6----|
|-5----4----|-2----0----|-4-4-4-4-4-4-4-4-|-4-4-4-4-4--4-4-4-|-5----4----|
|-----------|-----------|-2-2-2-2-2-2-2-2-|-2-2-2-2-2--2-2-2-|-----------|
|
|                                                   ~~
|-----------|-----------|-----------------|------------------|-----------|
|-----------|-----------|-----------------|------------------|-----------|
|-7----6----|-4----2----|-----------------|-6-9-6-9-6\-------|-7----6----|
|-7----6----|-4----2----|-----------------|------------------|-7----6----|
|-5----4----|-2----0----|-----------------|------------------|-5----4----|
|-----------|-----------|-2-2-4-0-2-2-4-0-|------------------|-----------|


|-----------|-------------------------|---------------------------|
|-9----6----|-------------------------|---------------------------|
|-9----6----|-------------------------|---------------------------|
|-9----6----|--4----------------------|--4-------------------4----|
|-7----4----|--4--4--4--4--4--4--4--4-|--4--4--4--4--4--4--4-4----|
|-----------|--2--2--2--2--2--2--2--2-|--2--2--2--2--2--2--2-2----|
|
|-----------|-------------------------|---------------------------|
|-----------|-------------------------|---------------------------|
|-9----6----|-11-11-11-11-11-11-11-11-|-13-13-13-14-14-14-11------|
|-9----6----|--x--x--x--x--x--x--x--x-|--x--x--x--x--x--x--x------|
|-7----4----|--9--9--9--9--9--9--9--9-|-11-11-11-12-12-12--9------|
|-----------|-------------------------|---------------------------|


|-----------|-----------|-----------------|-------------------|
|-----------|-----------|-----------------|-------------------|
|-7----6----|-4----2----|-----------------|-------------------|
|-7----6----|-4----2----|-4---------------|-4---------------4-|
|-5----4----|-2----0----|-4-4-4-4-4-4-4-4-|-4-4-4-4--4--4-4-4-|
|-----------|-----------|-2-2-2-2-2-2-2-2-|-2-2-2-2--2--2-2-2-|
|
|                                                    ~~~
|-----------|-----------|-----------------|-------------------|
|-----------|-----------|-----------------|-------------------|
|-7----6----|-4----2----|-----------------|-6-9-6-9-11\-------|
|-7----6----|-4----2----|-----------------|-------------------|
|-5----4----|-2----0----|-----------------|-------------------|
|-----------|-----------|-2-2-4-0-2-2-4-0-|-------------------|


|-----------|-----------|-------------------|------------------------|
|-7----6----|-9----6----|-------------------|------------------------|
|-7----6----|-9----6----|-------------------|------------------------|
|-7----6----|-9----6----|-4-----------------|--4----------------4----|
|-5----4----|-7----4----|-4-4-4-4--4-4--4-4-|--4----4-4-4-4-4-4-4----|
|-----------|-----------|-2-2-2-2--2-2--2-2-|--2----2-2-2-2-2-2-2----|
|
|                                                           ~
|-----------|-----------|-------------------|-13b14-------0-2--------|
|-----------|-----------|-7-7-9---10-7-10-7-|------------------------|
|-7----6----|-9----6----|-------------------|------------------------|
|-7----6----|-9----6----|-------------------|------------------------|
|-5----4----|-7----4----|-------------------|------------------------|
|-----------|-----------|-------------------|------------------------|


   Verse 2
                                  1.
    Gtr I
||---------------|--------------|--------------|
||o--------------|--------------|--------------|
||---------------|-7-7-x---7----|-6-6-x---6----|
||--4-4-----4----|-7-7-x-7-7----|-7-7-x-7-7----|
||o-4-4-x-4-4----|-5-5-x-5-5----|-4-4-x-4-4----|
||--2-2-x-2-2----|--------------|--------------|
|
||---------------|--------------|--------------|
||o--------------|-----7--------|--------------|
||----4----------|-7-9---9-7----|-------9------|
||--2---4-2-4----|--------------|-7-7-9---7----|
||o--------------|--------------|--------------|
||---------------|--------------|--------------|


                         2.
                      4x
|---------------------||-------------------|-------------------|
|--------------------o||-------------------|-------------------|
|-4-4-x-x-2-----------||-9--9-x-----9------|--4-4--x----2------|
|-4-4-x-x-2-----------||-9--9-x--9--9------|--4-4--x-2--2------|
|-2-2-x-x-0----------o||-7--7-x--7--7------|--2-2--x-0--0------|
|---------------------||-------------------|-------------------|
|
|                     4x
|---------------------||-------------------|-------------------|
|--------------------o||-----------10-12---|-------------------|
|---------------------||-9-11-9-11---------|-11---11---11--9\--|
|---9-----9p7p6-(6)---||-------------------|-------------------|
|-7-----7------------o||-------------------|-------------------|
|---------------------||-------------------|-------------------|


                                        1.
    Gtr I
    PM---------------------------------------------------
||------------------|-----------------|-----------------|
||o-----------------|-----------------|-----------------|
||------------------|-7-7---7-7-------|-6-6---6-6-------|
||--4-4---4-4-------|-7-7-x-7-7-------|-7-7-x-7-7-------|
||o-4-4-x-4-4-------|-5-5-x-5-5-------|-4-4-x-4-4-------|
||--2-2-x-2-2-------|-----------------|-----------------|
|
|     Gtr II
||------------------|-----------------|-----------------|
||o-----------------|---------7-------|-----------------|
||--------6-----6---|-7-7-9-7---7---7-|---------9-------|
||--4-4-6---4-4---4-|-------------9---|-7-7-9-7---7-9-7-|
||o-----------------|-----------------|-----------------|
||------------------|-----------------|-----------------|


                      2.
 ---------|
                   4x
|------------------||-----------------|--------------------|
|-----------------o||-----------------|--------------------|
|-4-4---2-2--------||-9-9---9-9-------|-4-4---2-2----------|
|-4-4-x-2-2--------||-9-9-x-9-9-------|-4-4-x-2-2----------|
|-2-2-x-0-0-------o||-7-7-x-7-7-------|-2-2-x-0-0----------|
|------------------||-----------------|--------------------|
|
|                  4x
|------------------||-----------------|--------------------|
|-----------------o||-7-7-5-----------|--------------------|
|---------4--------||-------7-6-4-----|---------7-9-7------|
|-2-2-4-2---2-4-2--||-------------7-4-|-7-7-9-7-------9----|
|-----------------o||-----------------|--------------------|
|------------------||-----------------|--------------------|


 Chorus 2
|-----------|-----------|-----------------|------------------|-----------|
|-----------|-----------|-----------------|------------------|-7----6----|
|-7----6----|-4----2----|-----------------|------------------|-7----6----|
|-7----6----|-4----2----|-4---------------|-4--------------4-|-7----6----|
|-5----4----|-2----0----|-4-4-4-4-4-4-4-4-|-4-4-4-4-4--4-4-4-|-5----4----|
|-----------|-----------|-2-2-2-2-2-2-2-2-|-2-2-2-2-2--2-2-2-|-----------|
|
|                                                   ~~
|-----------|-----------|-----------------|------------------|-----------|
|-----------|-----------|-----------------|------------------|-----------|
|-7----6----|-4----2----|-----------------|-6-9-6-9-6\-------|-7----6----|
|-7----6----|-4----2----|-----------------|------------------|-7----6----|
|-5----4----|-2----0----|-----------------|------------------|-5----4----|
|-----------|-----------|-2-2-4-0-2-2-4-0-|------------------|-----------|


|-----------|-------------------------|---------------------------|
|-9----6----|-------------------------|---------------------------|
|-9----6----|-------------------------|---------------------------|
|-9----6----|--4----------------------|--4-------------------4----|
|-7----4----|--4--4--4--4--4--4--4--4-|--4--4--4--4--4--4--4-4----|
|-----------|--2--2--2--2--2--2--2--2-|--2--2--2--2--2--2--2-2----|
|
|-----------|-------------------------|---------------------------|
|-----------|-------------------------|---------------------------|
|-9----6----|-11-11-11-11-11-11-11-11-|-13-13-13-14-14-14-11------|
|-9----6----|--x--x--x--x--x--x--x--x-|--x--x--x--x--x--x--x------|
|-7----4----|--9--9--9--9--9--9--9--9-|-11-11-11-12-12-12--9------|
|-----------|-------------------------|---------------------------|


|-----------|-----------|-----------------|-------------------|-----------|
|-----------|-----------|-----------------|-------------------|-7----6----|
|-7----6----|-4----2----|-----------------|-------------------|-7----6----|
|-7----6----|-4----2----|-4---------------|-4---------------4-|-7----6----|
|-5----4----|-2----0----|-4-4-4-4-4-4-4-4-|-4-4-4-4--4--4-4-4-|-5----4----|
|-----------|-----------|-2-2-2-2-2-2-2-2-|-2-2-2-2--2--2-2-2-|-----------|
|
|                                                    ~~~
|-----------|-----------|-----------------|-------------------|-----------|
|-----------|-----------|-----------------|-------------------|-7----6----|
|-7----6----|-4----2----|-----------------|-6-9-6-9-11\-------|-7----6----|
|-7----6----|-4----2----|-----------------|-------------------|-7----6----|
|-5----4----|-2----0----|-----------------|-------------------|-5----4----|
|-----------|-----------|-2-2-4-0-2-2-4-0-|-------------------|-----------|


|-----------|-------------------|---------------------------------|
|-9----6----|-------------------|---------------------------------|
|-9----6----|-------------------|---------------------------------|
|-9----6----|-4-----------------|--4-------------------------4----|
|-7----4----|-4-4-4-4--4-4--4-4-|--4----4--4----4--4-----4-4-4----|
|-----------|-2-2-2-2--2-2--2-2-|--2----2--2----2--2-----2-2-2----|
|
|-----------|-------------------|-13b14---13b14---13b14\----------|
|-9----6----|-9-7-9---10---10-7-|---------------------------------|
|-9----6----|------------7------|---------------------------------|
|-9----6----|-------------------|---------------------------------|
|-7----4----|-------------------|---------------------------------|
|-----------|-------------------|---------------------------------|


 Fill
   >
|-------------------------|--------------------------|--------------------------|--------------------------|
|-------------------------|--------------------------|--------------------------|--------------------------|
|-------------------------|--------------------------|--------------------------|--------------------------|
|--4----------------------|-(4)----------------------|-(4)----------------------|-(4)----------------------|
|--4----------------------|-(4)----------------------|-(4)----------------------|-(4)----------------------|
|--2----------------------|-(2)----------------------|-(2)----------------------|-(2)----------------------|
|
| Gtr III
|-------------------------|--------------------------|--------------------------|--------------------------|
|-------------------------|--------------------------|--------------------------|--------------------------|
|-------------------------|--------------------------|--------------------------|--------------------------|
|-------------------------|--------------------------|--------------------------|--------------------------|
|-------------------------|--------------------------|--------------------------|--------------------------|
|-14-14-14-14-14-14-14-14-|-14--14-14-14-14-14-14-14-|-16--16-16-16-16-16-16-16-|-16--16-16-16-16-16-16-16-|


|-------------------------|-------------------------|--------------------------|-------------------------|
|-------------------------|-------------------------|--------------------------|-------------------------|
|-------------------------|-------------------------|--------------------------|-------------------------|
|-------------------------|-------------------------|--------------------------|--x--x--x--9s11s=9s=x----|
|-------------------------|-------------------------|--------------------------|--x--x--x--x--x--x--x----|
|-------------------------|-------------------------|--------------------------|--x--x--x--7s=9s=7s=x----|
|
|-------------------------|-------------------------|--------------------------|-------------------------|
|-------------------------|-------------------------|--------------------------|-------------------------|
|-------------------------|-------------------------|--------------------------|-------------------------|
|-------------------------|-------------------------|--------------------------|-------------------------|
|-------------------------|-------------------------|--------------------------|-------------------------|
|-17-17-17-17-17-17-17-17-|-17-17-17-17-17-17-17-17-|-19-19-19-19-19-19-19-19--|-19-19-19-19-19\---------|


 Solo
|----------------------|--------------------------|
|----------------------|--------------------------|
|----------------------|--------------------------|
|----------------------|---------------9b10.5r(9)-|
|-9-9-9-9-7-9-(9)-9b11r|=(9)-9-9-9-7-9------------|
|----------------------|--------------------------|
|
| Gtr I
|   PM------------|          PM--------|
|----------------------|--------------------------|
|----------------------|--------------------------|
|----------------------|-----------------------4--|
|-4--------------------|--4--------------------4--|
|-4-4-4-4-4-4--4--4----|--4--4-4-4-4-4-4-------2--|
|-2-2-2-2-2-2--2--2----|--2--2-2-2-2-2-2----------|


|----------------------------|------------------------|
|----------------------------|------------------------|
|----------------------------|------------------------|
|--9--7-9---------9b10.5r(9)-|--9--7-9----------------|
|---------9--8--7------------|---------9--8--7-9-9----|
|----------------------------|------------------------|
|
|----------------------------|------------------------|
|----------------------------|------------------------|
|-(4)-----2-(2)-----------4--|-(4)-----2-(2)----------|
|-(4)-4-4-2-(2)-2-2-------4--|-(4)-4-4-2-(2)-2-2-4----|
|-(2)-2-2-0-(0)-0-0-------2--|-(2)-2-2-0-(0)-0-0-4----|
|----------------------------|-------------------2----|


|------------------------|-------------------|
|------------------------|-------------------|
|------------------------|-------------------|
|------------------------|-------------------|
|-9-9-7-9-(9)-9b11r(9)-9-|-9-9-9-7-5-4-2--0--|
|------------------------|-------------------|
|
| PM---------------|       PM------------|
|------------------------|-------------------|
|------------------------|-------------------|
|------------------------|-------------------|
|----------------------4-|-------------------|
|-4-4-4-4--4--4-----4--4-|-4-4-4-4-4-4-4-(4)-|
|-2-2-2-2--2--2-----2--2-|-2-2-2-2-2-2-2--2--|


|---------------------|-----------------------|
|---------------------|-----------------------|
|-----------------4---|-------------------7---|
|-2--4--2---2-------2-|-4-----4-2-4--2--------|
|---------4----4------|----2------------4-----|
|---------------------|-----------------------|
|
|---------------------|-----------------------|
|---------------------|-----------------------|
|-----------4-(4)-----|-----------4-(4)-------|
|-2-(2)-----4-(4)-4-4-|-2-(2)-----4-(4)-4s6---|
|-2-(2)-2-2-2-(2)-2-2-|-2-(2)-2-2-2-(2)-2s4---|
|-0-(0)-0-0-----------|-0-(0)-0-0-------------|


|-------------------|--------------------|
|-------------------|--------------------|
|-9-9S11---9S11---9S|=11---9S11---9S11---|
|-------------------|--------------------|
|-------------------|--------------------|
|-------------------|--------------------|
|
|   PM------------|      PM---------|
|-------------------|--------------------|
|-------------------|--------------------|
|-------------------|------------------4-|
|-4-----------------|--4---------------4-|
|-4-4--4-4-4--4-4-4-|--4-4-4--4-4-4--4-2-|
|-2-2--2-2-2--2-2-2-|--2-2-2--2-2-2--2---|


|------------------------|---------------------|
|--------10p9------------|---------------------|
|--9--11------11p=9------|---------------------|
|-------------------11p9-|---------------------|
|------------------------|-11p=9-4h7--9--9-9-9-|
|------------------------|---------------------|
|
|------------------------|---------------------|
|------------------------|---------------------|
|-(4)-------2-(2)------4-|-(4)-----2-(2)-------|
|-(4)--4--4-2-(2)-2--2-4-|-(4)-4-4-2-(2)-2-2-4-|
|-(2)--2--2-0-(0)-0--0-2-|-(2)-2-2-0-(0)-0-0-4-|
|------------------------|-------------------2-|


|----------------------|--------------------|
|----------------------|--------------------|
|----------------------|--------------------|
|----------------------|--------------------|
|-9-9-9-9-7-9-(9)-9b11r|=(9)-9-9-9-7-9-7-11-|
|----------------------|--------------------|
|
|----------------------|--------------------|
|----------------------|--------------------|
|----------------------|--------------------|
|----------------------|--4-----------------|
|-4-4-4-4-4-4--4--4----|--4--4-4-4-4-4-4--4-|
|-2-2-2-2-2-2--2--2----|--2--2-2-2-2-2-2--2-|


|--------------------------|---------------------|
|--------------------------|---------------------|
|--------------------------|---------------------|
|------------------------9-|-(9)-9-9-9-9-9-9-(9)-|
|-(11)-11-11-11-11-11-11---|---------------------|
|--------------------------|---------------------|
|
|--------------------------|---------------------|
|--------------------------|---------------------|
|--------------------------|---------------------|
|--------------------------|---------------------|
|---6---6--6--6--6--6--6-6-|--7--7-7-7-7-7-7--7--|
|---4---4--4--4--4--4--4-4-|--5--5-5-5-5-5-5--5--|


|---------------------------|------------------------|
|---------------------------|------------------------|
|---------------------------|-9-11-9-----------------|
|-11-(11)-11-11-11-11-11-11-|--------11-11\----------|
|---------------------------|------------------------|
|---------------------------|------------------------|
|
|---------------------------|------------------------|
|---------------------------|------------------------|
|---------------------------|------------------------|
|---------------------------|------------------------|
|--9---9---9--9--9--9--9--9-|-9--9-7--7--6--6-4-4----|
|--7---7---7--7--7--7--7--7-|-7--7-5--5--4--4-2-2----|


 Fill
   >
|-------------------------|--------------------------|--------------------------|--------------------------|
|-------------------------|--------------------------|--------------------------|--------------------------|
|-------------------------|--------------------------|--------------------------|--------------------------|
|--4----------------------|-(4)----------------------|-(4)----------------------|-(4)----------------------|
|--4----------------------|-(4)----------------------|-(4)----------------------|-(4)----------------------|
|--2----------------------|-(2)----------------------|-(2)----------------------|-(2)----------------------|
|
| Gtr III
|-------------------------|--------------------------|--------------------------|--------------------------|
|-------------------------|--------------------------|--------------------------|--------------------------|
|-------------------------|--------------------------|--------------------------|--------------------------|
|-------------------------|--------------------------|--------------------------|--------------------------|
|-------------------------|--------------------------|--------------------------|--------------------------|
|-14-14-14-14-14-14-14-14-|-14--14-14-14-14-14-14-14-|-16--16-16-16-16-16-16-16-|-16--16-16-16-16-16-16-16-|


|-------------------------|-------------------------|--------------------------|--------------------|
|-------------------------|-------------------------|--------------------------|--------------------|
|-------------------------|-------------------------|--------------------------|-11--x-11--x-11\----|
|-------------------------|-------------------------|--------------------------|-11--x-11--x-11\----|
|-------------------------|-------------------------|--------------------------|--9--x--9--x--9\----|
|-------------------------|-------------------------|--------------------------|--------------------|
|
|-------------------------|-------------------------|--------------------------|--------------------|
|-------------------------|-------------------------|--------------------------|--------------------|
|-------------------------|-------------------------|--------------------------|--------------------|
|-------------------------|-------------------------|--------------------------|--------------------|
|-------------------------|-------------------------|--------------------------|--------------------|
|-17-17-17-17-17-17-17-17-|-17-17-17-17-17-17-17-17-|-19-19-19-19-19-19-19-19--|-19-19-19-19-19\----|


 Chorus 3
  Gtr II
|-----------|-----------|-----------------|------------------|-----------|
|-----------|-----------|-----------------|------------------|-7----6----|
|-7----6----|-4----2----|-----------------|------------------|-7----6----|
|-7----6----|-4----2----|-4---------------|-4--------------4-|-7----6----|
|-5----4----|-2----0----|-4-4-4-4-4-4-4-4-|-4-4-4-4-4--4-4-4-|-5----4----|
|-----------|-----------|-2-2-2-2-2-2-2-2-|-2-2-2-2-2--2-2-2-|-----------|
|
| Gtr I
|                                                   ~~
|-----------|-----------|-----------------|------------------|-----------|
|-----------|-----------|-----------------|------------------|-----------|
|-7----6----|-4----2----|-----------------|-6-9-6-9-6\-------|-7----6----|
|-7----6----|-4----2----|-----------------|------------------|-7----6----|
|-5----4----|-2----0----|-----------------|------------------|-5----4----|
|-----------|-----------|-2-2-4-0-2-2-4-0-|------------------|-----------|


|-----------|-------------------------|---------------------------|
|-9----6----|-------------------------|---------------------------|
|-9----6----|-------------------------|---------------------------|
|-9----6----|--4----------------------|--4-------------------4----|
|-7----4----|--4--4--4--4--4--4--4--4-|--4--4--4--4--4--4--4-4----|
|-----------|--2--2--2--2--2--2--2--2-|--2--2--2--2--2--2--2-2----|
|
|-----------|-------------------------|---------------------------|
|-----------|-------------------------|---------------------------|
|-9----6----|-11-11-11-11-11-11-11-11-|-13-13-13-14-14-14-11------|
|-9----6----|--x--x--x--x--x--x--x--x-|--x--x--x--x--x--x--x------|
|-7----4----|--9--9--9--9--9--9--9--9-|-11-11-11-12-12-12--9------|
|-----------|-------------------------|---------------------------|


|-----------|-----------|-----------------|-------------------|-----------|
|-----------|-----------|-----------------|-------------------|-7----6----|
|-7----6----|-4----2----|-----------------|-------------------|-7----6----|
|-7----6----|-4----2----|-4---------------|-4---------------4-|-7----6----|
|-5----4----|-2----0----|-4-4-4-4-4-4-4-4-|-4-4-4-4--4--4-4-4-|-5----4----|
|-----------|-----------|-2-2-2-2-2-2-2-2-|-2-2-2-2--2--2-2-2-|-----------|
|
|                                                    ~~~
|-----------|-----------|-----------------|-------------------|-----------|
|-----------|-----------|-----------------|-------------------|-7----6----|
|-7----6----|-4----2----|-----------------|-6-9-6-9-11\-------|-7----6----|
|-7----6----|-4----2----|-----------------|-------------------|-7----6----|
|-5----4----|-2----0----|-----------------|-------------------|-5----4----|
|-----------|-----------|-2-2-4-0-2-2-4-0-|-------------------|-----------|


|-----------|-------------------|---------------------------------|
|-9----6----|-------------------|---------------------------------|
|-9----6----|-------------------|---------------------------------|
|-9----6----|-4-----------------|--4----------------4-------------|
|-7----4----|-4-4-4-4--4-4--4-4-|--4--4-4--4-4--4-4-4-------------|
|-----------|-2-2-2-2--2-2--2-2-|--2--2-2--2-2--2-2-2-------------|
|
|-----------|-------------------|-14-14p==12---14p=====12--14\----|
|-9----6----|-9-7-9---10---10-7-|---------------------------------|
|-9----6----|------------7------|---------------------------------|
|-9----6----|-------------------|---------------------------------|
|-7----4----|-------------------|---------------------------------|
|-----------|-------------------|---------------------------------|


   Outro
   4/4
    Gtr I
||------------------|-----------------|-----------------|--------------------||
||o-----------------|-3-3-3-3-3-3-3-3-|-2-2-2-2-2-2-2-2-|-0-0-0-0-0-0-0-0---o||
||--2-2-2-2-2-2-2-2-|-2-2-2-2-2-2-2-2-|-2-2-2-2-2-2-2-2-|-1-1-1-1-1-1-1-2----||
||--4-4-4-4-4-4-4-4-|-----------------|-----------------|--------------------||
||o-----------------|-----------------|-----------------|-------------------o||
||------------------|-----------------|-----------------|--------------------||


                                        1.
   4/4
||------------------|-----------------|-----------------|------------------||
||o-----------------|-3-3-3-3-3-3-3-3-|-2-2-2-2-2-2-2-2-|-0-0-0-0-0-0-0-0-o||
||--2-2-2-2-2-2-2-2-|-2-2-2-2-2-2-2-2-|-2-2-2-2-2-2-2-2-|-1-1-1-1-1-1-1-2--||
||--4-4-4-4-4-4-4-4-|-----------------|-----------------|------------------||
||o-----------------|-----------------|-----------------|-----------------o||
||------------------|-----------------|-----------------|------------------||
|
|   Gtr II
||------------------|-----------------|-----------------|------------------||
||o-----------------|-----------------|-----------------|-----------------o||
||------------------|-----------------|-----------------|------------------||
||------------------|-7-7-7-7-7-7-7-7-|-7-7-7-7-7-7-7-7-|-4-4-4-4-4-4-4----||
||o-4-4-4-4-4-4-4-4-|-5-5-5-5-5-5-5-5-|-4-4-4-4-4-4-4-4-|-2-2-2-2-2-2-2-2-o||
||--2-2-2-2-2-2-2-2-|-----------------|-----------------|------------------||


  2.
|------------------|------------------|------------------*|
|--5-5-5-5-5-5-5-5-|-0-0-0-0-0-0-0-0--|------------------*|
|--4-4-4-4-4-4-4-4-|-1-1-1-1-1-1-1-2--|------------------*|
|------------------|------------------|---4--------------*|
|------------------|------------------|---4--------------*|
|------------------|------------------|---2--------------*|
|
|------------------|------------------|------------------*|
|------------------|------------------|------------------*|
|------------------|------------------|------------------*|
|--9-9-9-9-9-9-9-9-|-4-4-4-4-4-4-4----|-4----------------*|
|--7-7-7-7-7-7-7-7-|-2-2-2-2-2-2-2-0--|-4----------------*|
|------------------|------------------|-2----------------*|



Tap to rate this tab
# A B C D E F G H I J K L M N O P Q R S T U V W X Y Z