Song name
# A B C D E F G H I J K L M N O P Q R S T U V W X Y Z

Misc Unsigned Bands - False Sense Of Security - Nervous Wreck tab

-------------------------------------------------------------------------------
			     NERVOUS WRECK - False Sense Of Security
-------------------------------------------------------------------------------
Tabbed by:guitar freak
Email:chemicalreactionfreak@hotmail.com

Tuning:EADGBE

Intro - clean guitar sound
e|-----------------------------------------------------------------|
B|-----------------------------------------------------------------|
G|-----5-------5-------5-------5-------3-------3-------8-------8---| repeat 9
D|---5---5---5---5---5---5---5---5---3---3---3---3---8---8---8---8-|   times
A|-3-------3-------3-------3-------1-------1-------6-------5-------|
E|-----------------------------------------------------------------|

Build up - Distortion/Overdrive palm mute
e|------------------------------------------------------------------|
B|------------------------------------------------------------------|
G|------------------------------------------------------------------|repeat 2 
D|-5-5-5-5-3-3-3-3-8-8-8-8-8-8-8-8-5-5-5-5-3-3-3-3-8-8-8-8-8-8-8-8--|  times
A|-3-3-3-3-1-1-1-1-6-6-6-6-5-5-5-5-3-3-3-3-1-1-1-1-6-6-6-6-5-5-5-5--|
E|------------------------------------------------------------------|

Chorus
e|---------------------------------------------|
B|---------------------------------------------|
G|-5--3-3--8-8--8-8-3-5--3-3--8-8--8-8-3-5-----|
D|-5--3-3--8-8--8-8-3-5--3-3--8-8--8-8-3-5-----|repeat 4 times
A|-3--1-1--6-6--5-5-1-3--1-1--6-6--5-5-1-3-----|
E|---------------------------------------------|

Verse - palm muted
e|------------------------------------------------------------------|
B|------------------------------------------------------------------|
G|------------------------------------------------------------------|
D|-5-5-5-5-5-5-5-5-5-5-5-5-5-5-5-5-3-3-3-3-3-3-3-3-8-8-8-8-8-8-8-8--|repeat 4
A|-3-3-3-3-3-3-3-3-3-3-3-3-3-3-3-3-1-1-1-1-1-1-1-1-6-6-6-6-5-5-5-5--|  times
E|------------------------------------------------------------------|

Chorus
e|---------------------------------------------|
B|---------------------------------------------|
G|-5--3-3--8-8--8-8-3-5--3-3--8-8--8-8-3-5-----|
D|-5--3-3--8-8--8-8-3-5--3-3--8-8--8-8-3-5-----|repeat 4 times
A|-3--1-1--6-6--5-5-1-3--1-1--6-6--5-5-1-3-----|
E|---------------------------------------------|

Bridge 
e|------------------------------------------------------------------|
B|------------------------------------------------------------------|
G|------------------------------------------------------------------|
D|-5-5-5-5-5-5-5-5-5-5-5-5-5-5-5-5-3-3-3-3-3-3-3-3-8-8-8-8-8-8-8-8--|repeat 2
A|-3-3-3-3-3-3-3-3-3-3-3-3-3-3-3-3-1-1-1-1-1-1-1-1-6-6-6-6-5-5-5-5--|  times
E|------------------------------------------------------------------|

Chrous x2

| p  pull-off
| ~  vibrato
| +  harmonic
| x  Mute note
===============================================================================
Tap to rate this tab
# A B C D E F G H I J K L M N O P Q R S T U V W X Y Z