Song name
# A B C D E F G H I J K L M N O P Q R S T U V W X Y Z

Misc Unsigned Bands - The Missing Ingredient - Robust Cookie tab

-------------------------------------------------------------------------------
			     Robust Cookie- The Missing Ingredient
-------------------------------------------------------------------------------
Tabbed by: dyls23
Email: bmxtreme2323@insightbb.com

Tuning: Standard

Riff A
Medium Distortion
e|-x-x-1-x-x-1-x-x----|
B|-x-x-3-x-x-3-x-x----|
G|-x-x-3-x-x-3-x-x----|X4
D|-x-x-1-x-x-1-x-x----|
A|-x-x-1-x-x-1-x-x----|
E|-x-x-1-x-x-1-x-x----|

e|-5-5-5--3-3-3-------|
B|-7-7-7--5-5-5-------|
G|-7-7-7--5-5-5-------|X1
D|-5-5-5--3-3-3-------|
A|-5-5-5--3-3-3-------|
E|-5-5-5--3-3-3-------|

Riff B
Heavy Distortion
e|-1-1-x-x-3-3-x-5-5-x-x-3-3-------|
B|-3-3-x-x-5-5-x-7-7-x-x-5-5-------|
G|-3-3-x-x-5-5-x-7-7-x-x-5-5-------|X4
D|-1-1-x-x-3-3-x-5-5-x-x-3-3-------|
A|-1-1-x-x-3-3-x-5-5-x-x-3-3-------|
E|-1-1-x-x-3-3-x-5-5-x-x-3-3-------|

Solo 1
Heavy Distortion
e|-12-12-13-12-12-13----|
B|----------------------|
G|----------------------|X4
D|----------------------|
A|----------------------|
E|----------------------|

e|-15-15-15-13-13-13----|
B|----------------------|
G|----------------------|X1
D|----------------------|
A|----------------------|
E|----------------------|

Solo 2
Heavy Distortion
e|-11-11-13-13-13-15-15-13-13-13----|
B|----------------------------------|
G|----------------------------------|
D|----------------------------------|
A|----------------------------------|
E|----------------------------------|

Order
Riff A 
x6
Riff B 
x4
Riff A 
x4
Riff B 
x4
Solo 1 
x2
Solo 2 
x4


===============================================================================

Tap to rate this tab
# A B C D E F G H I J K L M N O P Q R S T U V W X Y Z