Guitaretab - guitar tabs
Song name
# A B C D E F G H I J K L M N O P Q R S T U V W X Y Z

Misc Unsigned Bands - Clone The Fragile - Have You Ever tab

Clone The Fragile - Have You Ever... 


Tabbed By Jason Filio/Dom Peel

* = Parmute
# = Pinchharm

Tunnin 'Drop C' (C,G,C,F,A,D)


Intro..

D|:--------------------------------------------------------------------------------------------- |
A|:--Damo's Bit-------------Joe Comes In----------Dom/Chris Comes in---------------------------- |
F|:---------------------------------------------------------------------------------------------:|
C|:-1-1-11111111-1-1-111--1-1-11111111-1-1-111--1-1-11111111-1-1-111--1-1-11111111-1-1----------:|
G|:-1-1-11111111-1-1-111--1-1-11111111-1-1-111--1-1-11111111-1-1-111--1-1-11111111-1-1---------- |
C|:-1-1-11111111-1-1-111--1-1-11111111-1-1-111--1-1-11111111-1-1-111--1-1-11111111-1-1---------- |
    * * ******* * * ***  * * ******* * * ***  * * ******* * * ***  * * ******* * * * *
After x1 of the above the drums come in then repeat once more with backing then switch to this..


D|:---------------------------------------------------------------------------------------------- |
A|:---------------------------------------------------------------------------------------------- |
F|:----------------------------------------------------------------------------------------------:|
C|:-0-0-00000000-0-0-000--0-0-00000000-0-0-000--0-0-0000000-0-0-000--0-0-0000000-0-0-000---------:|
G|:-0-0-00000000-0-0-000--0-0-00000000-0-0-000--0-0-0000000-0-0-000--0-0-0000000-0-0-000--------  |
C|:-0-0-00000000-0-0-000--0-0-00000000-0-0-000--0-0-0000000-0-0-000--0-0-0000000-0-0-000--------- |
    * * ******* * * ***  * * ******* * * ***  * * ******* * * ***  * * ******* * * * ***

D|:------------------------------------------------------------------------------------------------- |
A|:------------------------------------------------------------------------------------------------- |
F|:-------------------------------------------------------------------------------------------------:|
C|:-1-1-11111111-1-1-111--1-1-11111111-1-1-111--0-0-00000000-0-0-000--0-0-00000000-0-0-000----------:|
G|:-1-1-11111111-1-1-111--1-1-11111111-1-1-111--0-0-00000000-0-0-000--0-0-00000000-0-0-000---------- |
C|:-1-1-11111111-1-1-111--1-1-11111111-1-1-111--0-0-00000000-0-0-000--0-0-00000000-0-0-000---------- |
    * * ******* * * ***  * * ******* * * ***  * * ******* * * ***  * * ******* * * * * ***

Then...

D|:------------------------------------------------------------------------------------------------------ |
A|:---------------------------------------------------------(joe dose this lil--------------------------- |
F|:---------------------------------------------------------cool thing at the end-------------8-9-10-11--:|
C|:---------------2h3-2h3-2h3----------------0h2h3----------of the riff)-------------7-8-9-10------------:|
G|:----5-1-4-5-4----------------5-1-4-5-4----------0h3h6---------------------6-7-8-9--------------------- |
C|:--00-0-0-0-0-0-------------00-0-0-0-0------------------------------5-6-7-8---------------------------- |   
     ** * * * * *             ** * * * *                             
                                  
D|:----------------------------------------------------------------------------------------- |
A|:--------------------12------------------------------------------------------------------- |
F|:--------------------15-------------------------------------------------------------------:|
C|:--0000000000000000-----------------------------------------------------------------------:|
G|:--0000000000000000----------------------------------------------------------------------- |
C|:--0000000000000000----------------------------------------------------------------------- |
     ****************
[ Tab from: http://www.guitaretab.com/m/misc-unsigned-bands/64933.html ]
D|:------------------------------------------------------------------------------------------------------------ |
A|:---------------------------------------------(you can figure out the tremo pickin out)---------------------- |
F|:------------------------------------------------------------------------------------------------------------:|
C|:---------------------------------(x6)-----------------------------------------------------------------------:|
G|:----8-7-5--8-7-5--10-8-7-10-8-7-----------888-777-555---888-777-555-----101010-888-777--121212-101010-888--- | 
C|:--00-0-0-00-0-0--8--8-8-8--8-8-----------0------------o----------------8---------------8-------------------- |
     ** * * ** * *  *  * * *  * *           *            *                *               *
 


D|:------------------------------------------------ |       |:----:
A|:------------------------------------------------ |       |:----:
F|:------------------------------------------------:|       |:-10-:
C|:------------------------------------------------:| (x4)  |:-*--:
G|:----8-7-5--8-7-5--10-8-7-12-10-8---------------- |       |:-8--:
C|:--00-0-0-00-0-0--8--8-8-8--8--8----------------- |       |:----:
     ** * * ** * *  *  * * *  *  *

D|:----------------------------------------------------------------------------------- |
A|:----------------------------------------------------------------------------------- |
F|:-----------------------------------------------------------------------------------:|
C|:---0-00-0-------------------------------0-00-0-------------------------------------:|
G|:---0-00-0-5h8p5h8p5h8p5-4h7p4h7p4h7p4---0-00-0-8h11p8h11p8h11p8-7h10p7h10p7h10p7--- | 
C|:---0-00-0-------------------------------0-00-0------------------------------------- |
      * ** *                               * ** * 

D|:----------------------------------------------------------------------------------------- |
A|:----------------------------------------------------------------------------------------- |
F|:-----------------------------------------------------------------------------------------:|
C|:-----------------------------------------------------------------------------------------:|
G|:-------8h11p8h11p8h11p8-7h10p7h10p7h10p7-------8h11p8h11p8h11p8-7h10p7h10p7h10p7--------- | 
C|:00~--00----------------------------------00~-00------------------------------------------ |
   **   **                                  **  ** 

                                           

D|:------------------------------------------------------------------------------------------------------ |
A|:------------------------------------------------------------------------------------------------------ |
F|:-------------------------------------------------------------------------------------------8-9-10-11--:|
C|:---------------2h3-2h3-2h3----------------0h2h3-----------------------------------7-8-9-10------------:|
G|:----5-1-4-5-4----------------5-1-4-5-4----------0h3h6---------------------6-7-8-9--------------------- |
C|:--00-0-0-0-0-0-------------00-0-0-0-0------------------------------5-6-7-8---------------------------- |  
     ** * * * * *             ** * * * * 


D|:----------------------------------------------------------------------------------------- |
A|:----------------------------------------------------------------------------------------- |
F|:-----------------------------------------------------------------------------------------:|
C|:-----------------------------------------------------------------------------------------:|
G|:----------------------------------------------------------------------------------------- | 
C|:----------------------------------------------------------------------------------------- |
Related for Clone The Fragile - Have You Ever tab