Song name
# A B C D E F G H I J K L M N O P Q R S T U V W X Y Z

Misc Unsigned Bands - Kssl - A Stroke Of Luck tab

Help us improve GuitareTab! Take a short survey!
Hey guys, this is a song me a a few mates wrote, it's a pretty basic easy song
to play but it really is awesome. 

Capo on 3rd Fret
Standard Tuning - EADGBE

Introduction - First Line is 'Staggering chords'
|--------------------------------------------|
|------------------------0-------------------|
|-----2---0---0--------2-----0-----0---------|
|----2---2---2----0---2-----2--2--2--2----0--|
|---0---3---2----2---0-----3-----2-------2--2|
|---------------3-----------------------3----|

Second Line - Strumming each chord - Let it ring
|------------------------------------|
|------------------0-----------------|
|---2-----------2------0----------0--|
|---2--2--2-----2---2---2--2-----0---|
|------3--2--2------3---2---2---2----|
|------------3--------------3--3-----|

Verse - Strumming Pattern usually down, down, up, down, up
but check it carefully because it does vary.
|---------------------------------------------------------------|
|---------------------------------------------------------------|
|---22222------------------------22222-------------------------0|
|---22222--22222--022222---------22222--22222--022222---------0-|
|----------33333--022222--22222---------33333--022222--2222--2--|  x2
|-------------------------33333------------------------3333-3---|
    ddudu  ddudu  dddud   ddudu  ddudu  ddudu  dddudu  dddd dudu

Chorus - Strumming Pattern - Same as before (Down, Down, Up, Down, Up)
|---------------------------------|
|---------------------------------|
|---------------------------------|
|---22222---------22222-----------|
|---22222--22222--33333--2222-0000|  
|---00000--33333---------3333-2222|
    ddudu  ddudu  ddudu  dddd dddd

|------------------------------------|
|------------------------------------|
|------------------------------------|
|---22222---------22222--------------|
|---22222--22222--33333--2222-2222222|
|---00000--33333---------3333-3333333|
    ddudu  ddudu  ddudu  dddd ddddddd

Outro
|--------------------------------------------|
|------------------------0-------------------|
|-----2---0---0--------2-----0-----0---------|
|----2---2---2----0---2-----2--2--2--2----0--|
|---0---3---2----2---0-----3-----2-------2--2|
|---------------3-----------------------3----|

|--------------------------------|
|------------------0-------------|
|---2-----------2------0---------|
|---2--2--2-----2---2---2--2-----|
|------3--2--2------3---2---2----|
|------------3--------------3----|  Let the Last note ring.

Order:
Introduction
Verse
Chorus
Verse
Chorus
Outro

Lyrics:

Verse:
A stroke of luck
Or a gift from god,
And a hand of faith,
or a devil's claw
From below or saints above, 
You came to me   (x2)

Chorus:
A hit is hard to resist
and i will never, ever miss,
i can take you out, 
with just a flick of my wrist
Related for Kssl - A Stroke Of Luck tab