Song name
# A B C D E F G H I J K L M N O P Q R S T U V W X Y Z

Misc Unsigned Bands - The Scene Aesthetic - Beauty In The Breakdown tab

-------------------------------------------------
 "Beauty in the Breakdown - The Scene Aesthetic

   http://www.purevolume.com/thesceneaesthetic
-------------------------------------------------
Tabbed by: Justin RiRaY
Email: Pakman7JR@hotmail.com       AIM: BeatPwner

     I am still working on the whole song, along
with the 2nd guitar. I got really stumped on the
Post-VERSE... I can't figure out the chords. If
someone can help me, please send me that part of
the song. I will have the rest of the song up 
soon.

Tuning: eBGDAE

     INTRO
 
e|----------------------0--3---------0-----|
B|----------------------1--1---------0--0--|
G|------0---------------0--0-----0---0--0--|
D|--0-h2-2-0h2p0--------2--2--0h2-2--2--0--|
A|---------------3-2-3--3--3---------2--2--|
E|----------------------0--0---------0--3--|
 
e|--------0--3---------0-------------------|
B|--------1--1---------0--0----------------|
G|--------0--0-----0---0--0----------------|
D|-0h2----2--2--0h2-2--2--0----------------|
A|----3-2-3--3---------2--2----------------|
E|--------0--0---------0--3----------------|


     VERSE         Post-VERSE

e|--0---0--3--|  e|-----------|?
B|--1---0--0--|  B|-----------|?
G|--0---0--0--|  G|--2--4--4--|?
D|--2---2--2--|  D|--2--4--5--|?
A|--3---2--3--|  A|--0--2--3--|?
E|--0---0--0--|  E|-----------|?
Tap to rate this tab
# A B C D E F G H I J K L M N O P Q R S T U V W X Y Z