Song name
# A B C D E F G H I J K L M N O P Q R S T U V W X Y Z

Misc Unsigned Bands - The Anteaters - This Or That tab

This is a song written by a band I know and is a fun song to annoy the living crap out 
someone with. I is very simple, enjoy.

e----------------------------------------------------------------------------|
b----------------------------------------------------------------------------|
g----------------------------------------------------------------------------|
d----------------------------------------------------------------------------|
a----------------------------------------------------------------1-2-3-4-5-6-|
E-1-2-3-4-5-6-7-8-9-10-11-12-13-14-15-16-17-18-19-20-21-22-23-24-------------|

e----------------------------------------------------------------------------|
b----------------------------------------------------------------------------|
g----------------------------------------------------------------------------|
d----------------------------------------------------1-2-3-4-5-6-7-8-9-10-11-|
a-7-8-9-10-11-12-13-14-15-16-17-18-19-20-21-22-23-24-------------------------|
E----------------------------------------------------------------------------|

e----------------------------------------------------------------------------|
b----------------------------------------------------------------------------|
g----------------------------------------1-2-3-4-5-6-7-8-9-10-11-12-13-14-15-|
d-12-13-14-15-16-17-18-19-20-21-22-23-24-------------------------------------|
a----------------------------------------------------------------------------|
E----------------------------------------------------------------------------|

e----------------------------------------------------------------------------|
b----------------------------1-2-3-4-5-6-7-8-9-10-11-12-13-14-15-16-17-18-19-|
g-16-17-18-19-20-21-22-23-24-------------------------------------------------|
d----------------------------------------------------------------------------|
a----------------------------------------------------------------------------|
E----------------------------------------------------------------------------|

e----------------1-2-3-4-5-6-7-8-9-10-11-12-13-14-15-16-17-18-19-20-21-22-23-|
b-20-21-22-23-24-------------------------------------------------------------|
g----------------------------------------------------------------------------|
d----------------------------------------------------------------------------|
a----------------------------------------------------------------------------|
E----------------------------------------------------------------------------|
At the same time as when you play each note say "this" all the way through the 24. Then 
it starts at the first fret on each string say "that" during each note. You will say 
and that alot and you will hate it. That is to be expected.
e-24-1-----------2-----------3-----------4-----------5-----------6-----------|
b------1-----------2-----------3-----------4-----------5-----------6---------|
g--------1-----------2-----------3-----------4-----------5-----------6-------|
d----------1-----------2-----------3-----------4-----------5-----------6-----|
a------------1-----------2-----------3-----------4-----------5-----------6---|
E--------------1-----------2-----------3-----------4-----------5-----------6-|

e-7-----------8-----------9-----------10----------------11-------------------|
b---7-----------8-----------9------------10----------------11----------------|
g-----7-----------8-----------9-------------10----------------11-------------|
d-------7-----------8-----------9--------------10----------------11----------|
a---------7-----------8-----------9---------------10----------------11-------|
E-----------7-----------8-----------9----------------10----------------11----|

e-12----------------13----------------14----------------15-------------------|
b----12----------------13----------------14----------------15----------------|
g-------12----------------13----------------14----------------15-------------|
d----------12----------------13----------------14----------------15----------|
a-------------12----------------13----------------14----------------15-------|
E----------------12----------------13----------------14----------------15----|

e-16----------------17----------------18----------------19-------------------|
b----16----------------17----------------18----------------19----------------|
g-------16----------------17----------------18----------------19-------------|
d----------16----------------17----------------18----------------19----------|
a-------------16----------------17----------------18----------------19-------|
E----------------16----------------17----------------18----------------19----|

e-20----------------21----------------22----------------23-------------------|
b----20----------------21----------------22----------------23----------------|
g-------20----------------21----------------22----------------23-------------|
d----------20----------------21----------------22----------------23----------|
a-------------20----------------21----------------22----------------23-------|
E----------------20----------------21----------------22----------------23----|

e-24-----------------0-0-0---------------------------------------------------|
b----24--------------0-0-0---------------------------------------------------|
g-------24-----------0-0-0---------------------------------------------------|
d----------24--------0-0-0---Let ring----------------------------------------|
a-------------24-----0-0-0---------------------------------------------------|
E----------------24--0-0-0---------------------------------------------------|

After all that work and all those this's and that's on the last bit with the all strings 
chord say "This or That" and your done. If your guitar doesn't have 24 frets than just 
to your last fret. This is fin and won't affect the song any.
Tap to rate this tab
# A B C D E F G H I J K L M N O P Q R S T U V W X Y Z