Song name
# A B C D E F G H I J K L M N O P Q R S T U V W X Y Z

Misc Unsigned Bands - The Anteters - Soup tab

This a a short, easy and dumb song that the The Anteaters made up during school.The 
ar ebelow the tab.

e----------3-----------3-----------------------------------------------------|
b-0-1-3-------0-1-3----------------------------------------------------------|
g----------------------------------------------------------------------------|
d------------------------------------------------3---------------------------|
a------------------------------0--1--3----0-1-3------------------------------|
E----------------------------------------------------------------------------|
"Tomato soup, tomato soup." "I love you, tomato soup."

e----------3-----------3-----------------------------------------------------|
b-0-1-3-------0-1-3----------------------------------------------------------|
g----------------------------------------------------------------------------|
d------------------------------------------------3---------------------------|
a------------------------------0--1--3----0-1-3------------------------------|
E----------------------------------------------------------------------------|
"Potato soup, potato soup." "I love you, potato soup."
Tap to rate this tab
# A B C D E F G H I J K L M N O P Q R S T U V W X Y Z