Song name
# A B C D E F G H I J K L M N O P Q R S T U V W X Y Z

Misc Unsigned Bands - The Mikeys - Cheater tab

This Is My Bands First Song, Yeah, We Are Still Working On It, It Is A Very Fast Paced Song

Intro
------------------------------|
------------------------------|
------------------------------|
-----0-----0-----0-----0--0---|
------0------0----0-----0-----|
-0------03-----05---08---8----|

-----------------------------------|
-----------------------------------|
-----------------------------------|
-4------------4-------2-------4----|
-2-245420-5-45-540-224-420-445-547-|
----------5--------2-------4-------|
Tap to rate this tab
 
# A B C D E F G H I J K L M N O P Q R S T U V W X Y Z