Song name
# A B C D E F G H I J K L M N O P Q R S T U V W X Y Z

Misc Unsigned Bands - The Zultones - Space Aliens Invading Zultonia tab

|------------------------------|
|------------------------------|
|------------------------------|
|-3-2-2-2-5-2-4-2-3-2-2-2-5-4--|
|-3-2-2-2-5-2-4-2-3-2-2-2-5-4--|
|-1-0-0-0-3-0-2-0-1-0-0-0-3-2--|
    . . .   .   .   . . .
|---------------------------------|
|---------------------------------|
|---------------------------------|
|-3-2-2-2-5-2-4-2-3-2-2-2---------|
|-3-2-2-2-5-2-4-2-3-2-2-2-3b*-2b*-| 
|-1-0-0-0-3-0-2-0-1-0-0-0---------|
    . . .   .   .   . . .


|------------------------------|
|------------------------------|
|-3-2-2-2-5-2-4-2-3-2-2-2-5-4--|
|-3-2-2-2-5-2-4-2-3-2-2-2-5-4--|
|-1-0-0-0-3-0-2-0-1-0-0-0-3-2--|
|------------------------------|
    . . .   .   .   . . .


|---------------------------------|
|---------------------------------|
|-3-2-2-2-5-2-4-2-3-2-2-2---------|
|-3-2-2-2-5-2-4-2-3-2-2-2-3b*-2b*-| 
|-1-0-0-0-3-0-2-0-1-0-0-0---------|
|---------------------------------|
    . . .   .   .   . . .


|------------------------------|
|------------------------------|
|-5-4-4-4-7-4-6-4-5-4-4-4-7-6--|
|-5-4-4-4-7-4-6-4-5-4-4-4-7-6--|
|-3-2-2-2-5-2-4-2-3-2-2-2-5-4--|
|------------------------------|
    . . .   .   .   . . .


|------------------------------|
|------------------------------|
|-5-4-4-4-7-4-6-4-5-4-4-4-7-6--|
|-5-4-4-4-7-4-6-4-5-4-4-4-7-6--|
|-3-2-2-2-5-2-4-2-3-2-2-2-5-4--|
|------------------------------|
    . . .   .   .   . . .

|----------------------------------------------|
|----------------------------------------------|
|-----------------------------------------*-*--|
|---------2---2-----3-2---------2---2-----3-2--|
|---2---4---3---3-2-------2---4---3---3-2------|
|-0---3-----------------0---3------------------|


|----------------------------------------------|
|-----------------------------------------*-*--|
|---------2---2-----3-2---------2---2-----3-2--|
|---2---4---3---3-2-------2---4---3---3-2------|
|-0---3-----------------0---3------------------|
|----------------------------------------------|

There's a break down at the end, it's just the 2nd to last riff played out of tune with the drums. 

http://soundclick.com/thezultones
Tap to rate this tab
 
# A B C D E F G H I J K L M N O P Q R S T U V W X Y Z