Song name
# A B C D E F G H I J K L M N O P Q R S T U V W X Y Z

Misc Unsigned Bands - Spider - Relaku Pujuk tab

Help us improve GuitareTab! Take a short survey!
Live at Planet Hollywood



|---------------------------|-----------------|-------5-9p5--------|
|--------------2------------|-3-3-3--2-0-2/3--|---5-7-------7-5-7~-|
|------------2---2---2------|-----------------|-7------------------|
|-0-0-0--2-4-------4---2/4--|-----------------|--------------------|
|---------------------------|-----------------|--------------------|
|---------------------------|-----------------|--------------------|

|---------------3-|
|-7\-5-5\-4-----3-|
|-9\-6-7\-5-----2-|
|-----------------|
Related for Spider - Relaku Pujuk tab