Song name
# A B C D E F G H I J K L M N O P Q R S T U V W X Y Z

Misc Unsigned Bands - Unit Of A Gain - The White Rabbit tab

-------------------------------------------------------------------------------
			     The White Rabbit - Unit of A Gain
-------------------------------------------------------------------------------
Tabbed by:A Human
Email:

Tuning:Standard

e|---------------------------------------------------------------------------|
B|---------------------------------------------------------------------------|
G|---------------------------------------------------------------------------|
D|-----------------0-------------------4-------------------3----------2------|
A|-----2--4-----2----------1--4-----1--4-------2--4-----2--4-------1--4-----1|
E|--3--------3----------2--------2----------1--------1----------0--------0---|

e|---|
B|---|
G|---|
D|-1-|
A|-4-|
E|---|

Do that twice then:

e|--------------------|---------------|
B|--------------------|---------------|
G|--------------------|---------------|
D|-----0-----------0--|---------------|
A|--------0-----0-----|---------------|
E|--3--------3--------|--3------------|
 
                                            3x
|---------------------|---------------------||
|*--------------------|--------------------*||
|*--3--5--3--6--7--3--|--8--7--5--7--5--7--*||
|---3-----3-----3-----|--3--4--3--4--3--4---||
|---------------------|---------------------||



e|--------------------|--------------------|--------------------|-------------|
B|--------------------|--------------------|--------------------|-------------|
G|--------------------|--------------------|--------------------|-------------|
D|--------0--------0--|--------0--------0--|--------0--------0--|--------0----|
A|-----2--------2-----|-----1--------1-----|-----2--------2-----|-----1-------|
E|--3--------3--------|--2--------2--------|--1--------1--------|--0--------0-|

e|-------
B|-------
G|-------
D|----0--
A|-1-----
E|-------

Riff 1                  
|------x--x----------x---||------x--x----------x---|
|---------x--------------||---------x--------------|
|*--3--x-----3-3-2-6-x--*||*--3--x-----3-3-2-6-x--*|
|*--3--x--x--3-3-4-0----*||*--3--x--x--3-3-4-0----*|
|---1--------1-1-0-1-x---||---1--------1-1-0-1-x---|
|------x--x----------x---||------x--x----------x---|

Riff 2
|------------------x--|-----------------x--|
|------------------x--|-----------------x--|
|*-----------------x--|-----------------x--|
|*--3--3--3--3--3--x--|--2--2--2--2--2--x--|
|---1--1--1--1--1--1--|--0--0--0--0--0--0--|
|------------------x--|-----------------x--|

Riff 1
Riff 2
Riff 1
Riff 2
Riff 1
Riff 2
Riff 1

then

|----------------|--------------------|------------------------|
|----------------|--------------------|------------------------|
|--3-------------|--------------------|------------------------|
|--3-------------|--------------------|------------------------|
|--1------1------|--------------------|------------------------|
|--0------1------|--0--1--4--1--0--1--|--5--1--0-1-4-1-0-1-5-4-|



                                                                       
--------------------------|--------------------------|---------------||
--------------------------|--------------------------|---------------||
--------------------------|--------------------------|---------------||
--------------------------|--------------------------|---------------||
--------------------------|--------------------------|---------------||
--0-1-4-1-0-1-5-4-0-1-5-4-|--5-4-5-4-5-4-5-4-5-4-5-4-|--0------------||


| /  slide up
| \  slide down
| h  hammer-on
| p  pull-off
| ~  vibrato
| +  harmonic
| x  Mute note
===============================================================================
Tap to rate this tab
# A B C D E F G H I J K L M N O P Q R S T U V W X Y Z