Song name
# A B C D E F G H I J K L M N O P Q R S T U V W X Y Z

Misc Unsigned Bands - Dysfunction - Gates Of Hell tab

intro
|----------------------------------------------------------|
|----------------------------------------------------------|
|----------------------------------------------------------|
|----------------------------------------------------------|
|-4--4--4--4--4-4-4-4-4-4-4-4--4--4--4--4--4-4-4-4-4-4-4-4-|
|-4--4--4--4--4-4-4-4-4-4-4-4--4--4--4--4--4-4-4-4-4-4-4-4-|
  .  .  .  .  . . . . . . . .  .  .  .  .  . . . . . . . .
|----------------------------------------------------------|
|----------------------------------------------------------|
|----------------------------------------------------------|
|----------------------------------------------------------|
|-4--4--4--4--4-4-4-4-4-4-4-4--4--4--4--4--4-4-4-4-4-4-4-4-|
|-4--4--4--4--4-4-4-4-4-4-4-4--4--4--4--4--4-4-4-4-4-4-4-4-|
  .  .  .  .  . . . . . . . .  .  .  .  .  . . . . . . . .

verse
|----------------|----------------|----------------|----------------|
|----------------|----------------|----------------|----------------|
|----------------|----------------|----------------|----------------|
|----------------|----------------|----------------|----------------|
|-4-0-4-0-4-0-4~-|-4-0-4-0-4-0-4~-|-4-0-4-0-4-0-4~-|-4-0-4-0-4-0-4~-|
|-4-0-4-0-4-0-4~-|-4-0-4-0-4-0-4~-|-4-0-4-0-4-0-4~-|-4-0-4-0-4-0-4~-|

chorus
|-----------------------------------------------------------------------|
|-----------------------------------------------------------------------|
|-----------------------------------------------------------------------|
|-77777777-66666666-9999999999999999-77777777-66666666-9999999999999999-|
|-xxxxxxxx-xxxxxxxx-xxxxxxxxxxxxxxxx-xxxxxxxx-xxxxxxxx-xxxxxxxxxxxxxxxx-|
|-55555555-44444444-7777777777777777-55555555-44444444-7777777777777777-|

verse
|----------------|----------------|----------------|----------------|
|----------------|----------------|----------------|----------------|
|----------------|----------------|----------------|----------------|
|----------------|----------------|----------------|----------------|
|-4-0-4-0-4-0-4~-|-4-0-4-0-4-0-4~-|-4-0-4-0-4-0-4~-|-4-0-4-0-4-0-4~-|
|-4-0-4-0-4-0-4~-|-4-0-4-0-4-0-4~-|-4-0-4-0-4-0-4~-|-4-0-4-0-4-0-4~-|

chorus
|-----------------------------------------------------------------------|
|-----------------------------------------------------------------------|
|-----------------------------------------------------------------------|
|-77777777-66666666-9999999999999999-77777777-66666666-9999999999999999-|
|-xxxxxxxx-xxxxxxxx-xxxxxxxxxxxxxxxx-xxxxxxxx-xxxxxxxx-xxxxxxxxxxxxxxxx-|
|-55555555-44444444-7777777777777777-55555555-44444444-7777777777777777-|

interlude
|----------13b14-s15-|
|-16h17p16-----------|
|--------------------|
|--------------------|
|--------------------|
|--------------------|

solo
|-------11-12-----|-------11-12-----|-------11-12-----|-------11-12-----|
|-11-12-------10~-|-11-12-------10~-|-11-12-------10~-|-11-12-------10~-|
|-----------------|-----------------|-----------------|-----------------|
|-----------------|-----------------|-----------------|-----------------|
|-----------------|-----------------|-----------------|-----------------|
|-----------------|-----------------|-----------------|-----------------|

|-------11-12-----|-------11-12-----|-------11-12-----|-------11-12-----|
|-11-12-------10~-|-11-12-------10~-|-11-12-------10~-|-11-12-------10~-|
|-----------------|-----------------|-----------------|-----------------|
|-----------------|-----------------|-----------------|-----------------|
|-----------------|-----------------|-----------------|-----------------|
|-----------------|-----------------|-----------------|-----------------|

|-------11-12-----|-------11-12-----|(start as slow as u can the get as fast
|-11-12-------10~-|-11-12-------10~-|as u can by the end of the solo)
|-----------------|-----------------|
|-----------------|-----------------|
|-----------------|-----------------|
|-----------------|-----------------|

verse
|----------------|----------------|----------------|----------------|
|----------------|----------------|----------------|----------------|
|----------------|----------------|----------------|----------------|
|----------------|----------------|----------------|----------------|
|-4-0-4-0-4-0-4~-|-4-0-4-0-4-0-4~-|-4-0-4-0-4-0-4~-|-4-0-4-0-4-0-4~-|
|-4-0-4-0-4-0-4~-|-4-0-4-0-4-0-4~-|-4-0-4-0-4-0-4~-|-4-0-4-0-4-0-4~-|

chorus
|-----------------------------------------------------------------------|
|-----------------------------------------------------------------------|
|-----------------------------------------------------------------------|
|-77777777-66666666-9999999999999999-77777777-66666666-9999999999999999-|
|-xxxxxxxx-xxxxxxxx-xxxxxxxxxxxxxxxx-xxxxxxxx-xxxxxxxx-xxxxxxxxxxxxxxxx-|
|-55555555-44444444-7777777777777777-55555555-44444444-7777777777777777-|

outro
|----------------------------------------------------------|
|----------------------------------------------------------|
|----------------------------------------------------------|
|----------------------------------------------------------|
|-4--4--4--4--4-4-4-4-4-4-4-4--4--4--4--4--4-4-4-4-4-4-4-4-|
|-4--4--4--4--4-4-4-4-4-4-4-4--4--4--4--4--4-4-4-4-4-4-4-4-|
  
|----------------------------------------------------------|
|----------------------------------------------------------|
|----------------------------------------------------------|
|----------------------------------------------------------|
|-4--4--4--4--4-4-4-4-4-4-4-4--4--4--4--4--4-4-4-4-4-4-4-4-|
|-4--4--4--4--4-4-4-4-4-4-4-4--4--4--4--4--4-4-4-4-4-4-4-4-|

this is my band's new song enjoy and for the record I, Matt
Hare, wrote this exact version so dont take this!
Tap to rate this tab
 
# A B C D E F G H I J K L M N O P Q R S T U V W X Y Z