Song name
# A B C D E F G H I J K L M N O P Q R S T U V W X Y Z

Misc Unsigned Bands - Dysfunction - Sweetness Of Hell tab

                                                              x4
|-------------------------------------------------------------------|
|-------------------------------------------------------------------|
|-------------------------------------------------------------------|
|-------------------------------------------------------------------|
|-2-2-2-2-2-2-2-2--4-4-4-4-4-4-4-4--6-6-6-6-6-6-6-6-6-6-6-6-6-6-6-6-|
|-0-0-0-0-0-0-0-0--2-2-2-2-2-2-2-2--4-4-4-4-4-4-4-4-4-4-4-4-4-4-4-4-|

|-------|-9b-----7-6-5--------|
|-------|----9-7-------5------|
|-------|----------------5----|
|-------|---------------------|
|-5~-3~-|---------------------|
|-3~-1~-|------------------0w-|
                                                                 x2
|-------------------------------------------------------------------|
|-------------------------------------------------------------------|
|-------------------------------------------------------------------|
|-------------------------------------------------------------------|
|-2-2-2-2-2-2-2-2--4-4-4-4-4-4-4-4--6-6-6-6-6-6-6-6-6-6-6-6-6-6-6-6-|
|-0-0-0-0-0-0-0-0--2-2-2-2-2-2-2-2--4-4-4-4-4-4-4-4-4-4-4-4-4-4-4-4-|
                                  
                                 x2
|-----------------------------------|
|-----------------------------------|
|-----------------------------------|
|-----------------------------------|
|-7h8p7-10~-7h8p7-10~-7h8p7-10~-12~-|
|-----------------------------------|

|-8---8-9~-8---8-9-~-10b-11b-12b-------------|
|---8--------8-------------------12b-11b-10b-|
|--------------------------------------------|
|--------------------------------------------|
|--------------------------------------------|
|--------------------------------------------|

|-2---2-3-4-3-2----2---2-3-4-3-2-|-2~-1~-0-|
|---2-----------2----------------|-2~-1~-0-|
|--------------------------------|---------|
|--------------------------------|---------|
|--------------------------------|---------|
|--------------------------------|---------|

|-12----12-13-14-13-12-16-16b-16-16b-------------------------------------------------|-18-16-----------------|
|----12------------------------------14-15-14-16-14-15-14-17-14-15-14-16-14-15-14-17-|-------18-16-----------|
|------------------------------------------------------------------------------------|-------------18-16-----|
|------------------------------------------------------------------------------------|-------------------18~-|
|------------------------------------------------------------------------------------|-----------------------|
|------------------------------------------------------------------------------------|-----------------------|
        x2
|----------|----------------------|-----|------------------------------|-20b-18b-16b-|
|-12-10/11-|-16-14-16-18-16-14-16-|-----|------------------------------|-------------|
|--0--0----|--0--0--0--0--0--0--0-|-----|----18-16-----18-16-----18-16-|-------------|
|----------|----------------------|-18~-|-18---------------------------|-------------|
|----------|----------------------|-----|------------------------------|-------------|
|----------|----------------------|-----|------------------------------|-------------|

                                x4
|-------------------------|-------|
|-------------------------|-------|
|-------------------------|-12-11-|
|-------------------------|--0--0-|
|-2--2-2--4--4-4--6--6-6--|-------|
|-0--0-0--2--2-2--4--4-4--|-------|   fades out on last part
Tap to rate this tab
 
# A B C D E F G H I J K L M N O P Q R S T U V W X Y Z