Song name
# A B C D E F G H I J K L M N O P Q R S T U V W X Y Z

Misc Unsigned Bands - Dysfunction - The Devil Has Risen tab

intro                            x2
|----------------------------------|
|----------------------------------|
|----------------------------------|
|----------------------------------|
|----------------------------------|
|-00000000-1111-5555-3333-00000000-|
  ........ .... .... .... ........
                                  x3
|-------------------------------------|
|-------------------------------------|
|-------------------------------------|
|-------------------------------------|
|-00000000-88888888-55555555-77777777-|
|-00000000-88888888-55555555-77777777-|
  ........ ........ ........ ........

|-------------------------------------|
|-------------------------------------|
|-------------------------------------|
|-------------------------------------|
|-00000000-88888888-55555555-77777777-|
|-00000000-88888888-55555555-77777777-|

pre-verse
|---------|
|---------|
|---------|
|---------|
|-x-x-x-x-|
|-x-x-x-x-|

verse                             x3
|-------------------------------------|
|-------------------------------------|
|-------------------------------------|
|-------------------------------------|
|-66666666-44444444-66666666-77777777-|
|-66666666-44444444-66666666-77777777-|

chorus(sorry only 1 short song)
|-----------10-8-|
|-10-8-----------|
|------10-8------|
|----------------|
|-------(x5)-----|
|----------------|

verse                             x3
|-------------------------------------|
|-------------------------------------|
|-------------------------------------|
|-------------------------------------|
|-66666666-44444444-66666666-77777777-|
|-66666666-44444444-66666666-77777777-|

bridge
|---------------|
|---------------|
|---------------|
|---------------|
|-6-8-9-11~-12~-|
|-4-6-7--9~-10~-|

solo(really short)
|-------13-|
|----12----|
|-11-------|
|----------|
|----------|
|----------|

outro                           x2
|-------------------------------------|
|-------------------------------------|
|-------------------------------------|
|-------------------------------------|
|-------------------------------------|
|-00000000-1111-5555-3333-00000000-0~-|

heres my realy short song that my mind just came up with while i was screwing around
Tap to rate this tab
 
# A B C D E F G H I J K L M N O P Q R S T U V W X Y Z