Song name
# A B C D E F G H I J K L M N O P Q R S T U V W X Y Z

Misc Unsigned Bands - Dysfunction - Murdurous Children tab

intro
|--------------------------------------------------|
|--------------------------------------------------|
|--------------------------------------------------|
|--------------------------------------------------|
|-0-1-0-2-0-1-0-2-0-1-0-2-0-1-0-2-0-1-0-2-0-1-0-2~-|
|-0-1-0-2-0-1-0-2-0-1-0-2-0-1-0-2-0-1-0-2-0-1-0-2~-|

chorus
|-0~--0~-|
|-0~--1~-|
|-0~--2~-|
|-2~--3~-|
|-3~--0~-|
|-0~--0~-|

solo:
|-------------------------8-11--|
|--------------------8-11-------|
|---------------8-10------------|
|----------8-10-----------------|
|---6-8-10----------------------|
|-8-----------------------------|

|---------------------3-6--|
|-----------------3-6------|
|-------------3-5----------|
|---------3-5--------------|
|---1-3-5------------------|
|-3------------------------|

verse
|--------------------------------|
|--------------------------------|
|-7b9-7-5--------5---5-7-7b9-5---|
|---------7--5h7---7-----------7-|
|--------------------------------|
|--------------------------------|

|---------------------5-8-|
|-----------------5-8-----|
|-------------5-7---------|
|---------5-7-------------|
|---3-5-7-----------------|
|-5-----------------------|

Chorus
|-0~--0~-|
|-0~--1~-|
|-0~--2~-|
|-2~--3~-|
|-3~--0~-|
|-0~--0~-|

outro(solo)
|-14-15-16-17-16-15-14-15-16-17-18-16-17-18-19-17-18-19-20b------------|
|----------------------------------------------------------------------|
|----------------------------------------------------------------------|
|----------------------------------------------------------------------|
|----------------------------------------------------------------------|
|----------------------------------------------------------------------|

heres my latest song
Tap to rate this tab
 
# A B C D E F G H I J K L M N O P Q R S T U V W X Y Z