Song name
# A B C D E F G H I J K L M N O P Q R S T U V W X Y Z

Misc Unsigned Bands - Dysfunction - El Mexicano tab

verse
|----------|----------|----------|----------|
|----------|----------|----------|----------|
|-11111111-|-22222222-|-11111111-|-22222222-|
|-22222222-|-33333333-|-22222222-|-33333333-|
|-22222222-|-33333333-|-22222222-|-33333333-|
|----------|----------|----------|----------|

chorus
|-x-|-x-|-x-|-x-|-x-|-x-|
|-x-|-x-|-x-|-x-|-x-|-x-|
|-1-|-2-|-1-|-2-|-1-|-2-|
|-2-|-3-|-2-|-3-|-2-|-3-|
|-2-|-3-|-2-|-3-|-2-|-3-|
|-0-|-0-|-0-|-0-|-0-|-0-|
(strum each down down up up down up)

verse
|----------|----------|----------|----------|
|----------|----------|----------|----------|
|-11111111-|-22222222-|-11111111-|-22222222-|
|-22222222-|-33333333-|-22222222-|-33333333-|
|-22222222-|-33333333-|-22222222-|-33333333-|
|----------|----------|----------|----------|

chorus
|-x-|-x-|-x-|-x-|-x-|-x-|
|-x-|-x-|-x-|-x-|-x-|-x-|
|-1-|-2-|-1-|-2-|-1-|-2-|
|-2-|-3-|-2-|-3-|-2-|-3-|
|-2-|-3-|-2-|-3-|-2-|-3-|
|-0-|-0-|-0-|-0-|-0-|-0-|
(strum each down down up up down up)

solo:
|---------------|---2-x-x-x-2---|--------|
|---------------|-1---x-x-x---1-|--------|
|---------------|-----x-x-x-----|--------|
|---------------|-----x-x-x-----|-15/17~-|
|---2---4---2---|-----x-x-x-----|--------|
|-1---3---3---1-|-----x-x-x-----|--------|

then theres singing and some drums but thats the whole guitar part so...
Tap to rate this tab
# A B C D E F G H I J K L M N O P Q R S T U V W X Y Z