Song name
# A B C D E F G H I J K L M N O P Q R S T U V W X Y Z

Misc Unsigned Bands - Scarlet Affair - If Left To Our Own Devices The Outcome Could Be Catastrophic tab

This is an awesome song for those who have heard it..this is an accurate intro, only for
guitar 1 though..i'll try to figure out some of guitar 2..but throughout the song a lot
of the same chords are used but they blend in some quick fingerwork...good luck..

e|------------------------|
B|-4-----5----------------|
G|---4-4---4--6-6---------|
D|-----------------7h9p7--|
A|------------------------|
E|------------------------| 2x

e|------------------------|
B|-4-4-5------------------|
G|-------4--6-------------|
D|-------------7h9p7------|
A|------------------------|
E|------------------------| x3

e|---------------7-7-7--------------|
B|-4-4-4--5-5-5---------4h5p4h5-----|
G|-------------------------------4--|
D|----------------------------------|
A|----------------------------------|
E|----------------------------------|

e|------------------------|
B|-4-4-5------------------|
G|-------4--6-------------|
D|-------------7h9p7------|
A|------------------------|
E|------------------------| x3

e|---------------7-7-7--------------|
B|-4-4-4--5-5-5---------4h5p4h5-----|
G|-------------------------------4--|
D|----------------------------------|
A|----------------------------------|
E|----------------------------------|

e|-----------|
B|-----------|
G|--6--6--6--|
D|--6--6--6--|
A|--4--4--4--|
E|-----------| let ring

e|-----------------------------------------------------------------------|
G|-----------------------------------------------------------------------|
B|--6-6-6-6-6-6-6-6------------------------------------4-4-4-4-4-4-4-4---|
D|--6-6-6-6-6-6-6-6--7-7-7-7-7-7-7-7--2-2-2-2-2-2-2-2--4-4-4-4-4-4-4-4---|
A|--4-4-4-4-4-4-4-4--7-7-7-7-7-7-7-7--2-2-2-2-2-2-2-2--2-2-2-2-2-2-2-2---|
E|-------------------5-5-5-5-5-5-5-5--0-0-0-0-0-0-0-0--------------------| 2x
    ^^^^^^^^^^^^^^^
       Qick-stop

pretty sweet...
Tap to rate this tab
# A B C D E F G H I J K L M N O P Q R S T U V W X Y Z